» » »

Goldfinger, Superman Tabs (ver.1)

Artists:  A B C D E F G H I J K L M N O P Q R S T U V W X Y Z # 

Superman Tabs (ver.1)

Goldfinger Tabs
 Rating:
4/5 (4 votes)
Superman lessons Tabs too difficult? Try these video lessons and learn fast
1
                Intro: Guitar 1
e|--55-5-5-5--555-555--7-7-7-7--6/777-6/777--7-7-7-7---9-9-9-9--77-7-7-1212-99-1010-9--|
B|--77-7-7-7--555-555--8-8-8-8--6/777-6/777--8-8-8-8--10101010--88-8-8-----------------|
G|--77-7-7-7--666-666--9-9-9-9--6/777-6/777--9-9-9-9--11111111--77-7-7-----------------|
D|--77-7-7-7--777-777--9-9-9-9--8/999-8/999--9-9-9-9--11111111--99-9-9-----------------|
A|-------------------------------------------------------------------------------------|
E|-------------------------------------------------------------------------------------|

Guitar 2
e|-------------------------------------------------------------------------------------|
B|-------------------------------------------------------------------------------------|
G|-------------------------------------------------------------------------------------|
D|-------------------------------------------------------------------------------------|
A|------------------------------------------------------------------------777777777777-|
E|------------------------------------------------------------------------555555555555-|                                                                                   PM---------|
Chorus: Guitar 1
e|-55-5-5-5--555-555--7-7-7-7--777-777--7-7-7-7---9-9-9-9--77-7-7--555555--|x2
B|-77-7-7-7--555-555--8-8-8-8--777-777--8-8-8-8--10101010--88-8-8--555555--|
G|-77-7-7-7--666-666--9-9-9-9--777-777--9-9-9-9--11111111--77-7-7--666666--|
D|-77-7-7-7--777-777--9-9-9-9--999-999--9-9-9-9--11111111--99-9-9--777777--|
A|-------------------------------------------------------------------------|
E|-------------------------------------------------------------------------|

Guitar 2                                                                                     x2
e|---------------------------------------------------------------------------------------------|
B|---------------------------------------------------------------------------------------------|
G|---------------------------------------------------------------------------------------------|
D|-77777777----------99999999----------99999999-1111111111111111-1212121212121212-141414141414-|
A|-55555555-77777777-77777777-99999999-77777777--9-9-9-9-9-9-9-9-1010101010101010-121212121212-|
E|----------55555555----------77777777---------------------------------------------------------|
   PM--------------------------------------|

Verse:
e|-55-5-5-5--555-555--7-7-7-7--777-777--77-7-7--5-5-5-5--5-55-55-5--|x2
B|-77-7-7-7--555-555--8-8-8-8--777-777--88-8-8--7-7-7-7--5-55-55-5--|
G|-77-7-7-7--666-666--9-9-9-9--777-777--77-7-7--7-7-7-7--6-66-66-6--|
D|-77-7-7-7--777-777--9-9-9-9--999-999--99-9-9--7-7-7-7--7-77-77-7--|
A|------------------------------------------------------------------|
E|------------------------------------------------------------------|

Pre-Verse/Pre-Bridge:
e|---|---|---|---|---|---|---|---||---|---|
B|---|---|---|---|---|---|---|---||---|---|
G|---|-7-|---|---|-6-|-4-|---|---||-7-|---|
D|-5-|-7-|-7-|-4-|-6-|-4-|-5-|-7-||-7-|-5-|
A|-5-|-5-|-7-|-4-|-4-|-2-|-5-|-7-||-5-|-7-|
E|-3-|---|-5-|-2-|---|---|-3-|-5-||---|-5-|

Bridge: CHORDS
e|--5--7--7--|--8--10--10------|
B|--5--7--8--|-10--12----12----|
G|--5--7--9--|-10--12------12--|
D|--7--9--9--|-----------------|
A|--7--9--7--|-----------------|
E|--5--7-----|-----------------|

Solo:                                                     x2
e|------------------------------------------7-5--------------|--55--|
B|--------7-10----------------------------------7-7-5--5--5--|--77--|
G|----7-9------9--7---7-9-7--7-6----4-7-4--7------7-6-6--6---|--77--|
D|--7---------------9--------9-7--5--------------------------|--77--|
A|-----------------------------------------------------------|------|
E|-----------------------------------------------------------|------|
 
END

Lyrics:

So here I am
doing everything I can
holding on to what I am
pretending I'm a superman 
I'm trying to keep
the ground on my feet
it seems the world's 
falling down around me
the nights are all long
I'm singing this song
to try and make the answers 
more than maybe

and I'm so confused
about what to do 
sometimes I want 
to throw it all away

so here I am 
looking older all the time
growing older all the time
feeling younger in my mind
I'm trying to sleep
I lost count of the sheep
my mind is racing faster 
every minute
what could I do more
yeah I'm really not sure
I know I'm running circles
but I can't quit
and I'm so confused 
about what to do 
sometimes I want to 
throw it all away
controlling everything in site

I'm feeling weak
I don't feel right
you're telling me 
I have to change
telling me to act my age
but if all that I can do
is just sit and watch time go
then I'll have to say good bye
life's too short to watch it fly
watch it fly
            
Submit corrections

comments powered by Disqus
↑ Back to top | Goldfinger Tabs for Superman. Lyrics for acoustic guitar and electric guitar. 1 Tablatures and chords are parodies/interpretations of the original songs. You may use it for private study, scholarship, research or language learning purposes only