>
 >
Stay

Stay Chords

Goldfinger - Stay chords, tabs, tablatures, lyrics

Guitar lessons | Add/correct | Request | Top 50 tabs Artists:  A B C D E F G H I J K L M N O P Q R S T U V W X Y Z 0-9

Stay Chords – Goldfinger

CD, Sheet music, Poster

Do you like Stay? Share with your friends now
Bass TabsChordsTabsTabs v2Ukulele
Goldfinger:  Stay
released in 1996 by Mojo Records



G          A
And if I'm sorry...
C D
G A
C D
B D (-4-5-4-2- on the A string)
B D A
B D (-4-5-4-2- on the A string)
B D A
D E* C D E* G*
D E* C D E* G*


--[no chords here, play 'em if you're bored]--

(G) (A)
So when I see you...
(C) (D)
(G) (A)
(C) (D) \\\\\\\
B D (-4-5-4-2- on the A string)
B D A
B D (-4-5-4-2 on the A string)
B D A
D E* C D E* G*
D E* C D E* G*



(some little quiet harmonics with quitar)
(just play single notes here, not chords)

D         B     C
I feel so cold...
D B C CCCCCCCCCCCCCCC

==[Verse 1, hammering at chords pretty darn fast]:==

G          A
And if I'm sorry...
C D
G A
C D
G A
C D
G A
C D
D C D E* C
D C D C G*

(mini-solo starts here)

          D            C      D E* C
So let me stay-hey-hey-hey...
D C D
E* D D\


D           C           D     E*    C  
17-17-17-17-15-15-15-15-15-15-17-17-12-12-12-12-
------------------------------------------------
------------------------------------------------
------------------------------------------------
------------------------------------------------
------------------------------------------------

Chords Used:                  Notes during Bridge:

 G  A  C  D  B or B  E* G*            D  B  C
--------------------------------------------------
--------------------------------------------------
-------5--7--4-------9--12------------------------
-5--7--5--7--4----9--9--12------------------------
-5--7--3--5--2----9--7--10------------5--2--3-----
-3--5-------------7-------------------------------

\ = slide down neck

If you want any more Goldfinger tabs, 

Questions, Comments, Complaints, Corrections?
Mail me at:





Comments


Popular Goldfinger tabs & chords
Walking In The Dark Bass Tabs
You Think Its A Joke Bass Tabs
Dad Chords
99 Red Balloons 6 Tabs
I Need To Know 1 Tabs
Mable Tabs
Nothing To Prove 1 Tabs
This Lonely Place Tabs
Anything Ukulele
This Lonely Place Ukulele


Song lyrics



↑ Back to top | Tablatures and chords are parodies/interpretations of the original songs. You may use it for private study, scholarship, research or language learning purposes only
© 2014 AZChords.com Contact us | Privacy policy | DMCA | Add/correct tabs | Request tabs | Top 50 tabs