» » »

Goldfinger, Spkoesman Tabs (ver.1)

Artists:  A B C D E F G H I J K L M N O P Q R S T U V W X Y Z # 

Spkoesman Tabs (ver.1)

Goldfinger Tabs
 Rating:
4/5 (4 votes)
Spkoesman lessons Tabs too difficult? Try these video lessons and learn fast
1
                e|---------------------------------------------------------------------------|
B|---4-------4-------4-------4-------4---------------------------------------|
G|--4-------4-------4-------4-------4----------------------------------------|
D|-4----2--4----2--4----2--4----2--4-----------------------------------------|
A|2----2--2----2--2----2--2----2--2------------------------------------------|
E|----0-------0-------0-------0----------------------------------------------|

Verse 1
e|---------------------------------------------------------------------------|
B|---4--------6-----4---------4----------------------------------------------|
G|--4----3---6-----3-----4---4-----------------------------------------------|
D|-4----4---6-----2-----4---4------------------------------------------------|
A|2----4---4-----2-----4---2-------------------------------------------------|
E|----2---------0-----2------------------------------------------------------|
  x10 x10  x10  x2    x2  x8  

  Am I alone?
e|------------------        -------------------------------------------------|
B|----2-------------        -------------------------------------------------|
G|---2--------------        -------------------------------------------------|
D|--2---------------        -------------------------------------------------|
A|-0----------------        -4-5-7-5-4---------------------------------------|
E|------------------        -------------------------------------------------|
   x3                        (guitar 2)

  (Chorus)
e|---------------------------------------------------------------------------|
B|-------------7---7---4-------------7---------------------------------------|
G|---4----6---7---7---4----4----6---7-----6----------------------------------|
D|--5----7---7---7---4----5----7---7-----7-----------------------------------|
A|-5----7---5---4---2----5----7---5-----7------------------------------------|
E|3----5----------------3----5---------5-------------------------------------|
  x6   x6   x3  x3  x6  x6   x6   x6   x6

e|---------------------------------------------------------------------------|
B|---4-------4-------4-------4-------4---------------------------------------|
G|--4-------4-------4-------4-------4----------------------------------------|
D|-4----2--4----2--4----2--4----2--4-----------------------------------------|
A|2----2--2----2--2----2--2----2--2------------------------------------------|
E|----0-------0-------0-------0----------------------------------------------|

Verse 2 - Same as verse 1 but palm muted

  Am I alone?
e|------------------        -------------------------------------------------|
B|----2-------------        -------------------------------------------------|
G|---2--------------        -------------------------------------------------|
D|--2---------------        -------------------------------------------------|
A|-0----------------        -4-5-7-5-4---------------------------------------|
E|------------------        -------------------------------------------------|
   x3                        (guitar 2)

Chorus

e|---------------------------------------------------------------------------|
B|---4----------------4---x----4---------------------------------------------|
G|--4----------------4---x----4----------------------------------------------|
D|-4----2-----------4---x----4-----------------------------------------------|
A|2----2-----------2---x----2------------------------------------------------|
E|----0----------------------------------------------------------------------|
  (repeats a lot)  x4       x4

Chorus

e|---------------------------------------------------------------------------
B|---4-------4-------4-------4-------4---------------4--------4--------4-----
G|--4-------4-------4-------4-------4---------------4--------4--------4------
D|-4----2--4----2--4----2--4----2--4----2---2---2--4----2--4-----2--4----2---
A|2----2--2----2--2----2--2----2--2----2---2---2--2----2--2-----2--2----2----
E|----0-------0-------0-------0-------0---0---0-------0--------0-------0-----
                                      (palm mute)   

e|---------------------|
B|---4-------4-------4-|
G|--4-------4-------4--|
D|-4----2--4----2--4---|
A|2----2--2----2--2----|
E|----0-------0--------|
            
Submit corrections

comments powered by Disqus
↑ Back to top | Goldfinger Tabs for Spkoesman. Lyrics for acoustic guitar and electric guitar. 1 Tablatures and chords are parodies/interpretations of the original songs. You may use it for private study, scholarship, research or language learning purposes only