» » »

Goldfinger, Spankbank Tabs (ver.1)

Artists:  A B C D E F G H I J K L M N O P Q R S T U V W X Y Z # 

Spankbank Tabs (ver.1)

Goldfinger Tabs
Rating:
0/5 (0 votes)
Spankbank lessons Tabs too difficult? Try these video lessons and learn fast
                			     SPANK BANK - Goldfinger


Bass Intro (no guitar)

...the walls around me
e|-2-----7-----2-------------------------------------------------------------|
B|-3-----7-----3--------3----------------------------------------------------|
G|---------------------3-----------------------------------------------------|
D|--------------------3------------------------------------------------------|
A|-------------------1-------------------------------------------------------|
E|---------------------------------------------------------------------------|
  x4    x4    x4     x1

  I try to break away from...
e|---------------------------------------------------------------------------|
B|----7--------7--------3--------3-------------------------------------------|
G|---7-7------7-7------4-4------3-3------------------------------------------|
D|--7---7----7---7----4---4----3---3-----------------------------------------|
A|-5--------4--------2--------1----------------------------------------------|
E|---------------------------------------------------------------------------|

  But my feet are stuck and my half a buck
e|---------------------------------------------------------------------------|
B|---------------------------------------------------------------------------|
G|---------------------------------------------------------------------------|
D|---3----5------------------------------------------------------------------|
A|--3----5-------------------------------------------------------------------|
E|-1----3--------------------------------------------------------------------|
   x8   x8
(palm muted)

  is wasted on this machine and Im never coming back
e|---------------------------------------------------------------------------|
B|----5----5----7------------------------------------------------------------|
G|---5----5----7-----4-------------------------------------------------------|
D|--5----5----7-----5--------------------------------------------------------|
A|-3----2----5-----5---------------------------------------------------------|
E|----------------3----------------------------------------------------------|
   x6  x6   x6    x2

  to the spank bank of lust              ...just makes me furious
e|---------------------------           -------------------------------------|
B|----7---------9------------           -------------------------------------|
G|---7-----6---9-----4-------           -------------------------------------|
D|--7-----7---9-----5--------           -------------------------------------|
A|-5-----7---7-----5---------           ---<<<<<<<<<<<<<<<<<<<<<<<<<---------|
E|------5---------3----------           ---<<<<<<<<<<<<<<<<<<<<<<<<<---------|
  x6    x6   x6   x6                        (guitar 2)

...***ing
e|---------------------------------------------------------------------------|
B|----7----7-----------------------------------------------------------------|
G|---7----7------------------------------------------------------------------|
D|--7----7-------------------------------------------------------------------|
A|-5----5--------------------------------------------------------------------|
E|---------------------------------------------------------------------------|
    (*)


* = Let your fingers slide up the neck to get the falling out sound.
<<<<<<< = pickslide
            

comments powered by Disqus
↑ Back to top | Goldfinger Tabs for Spankbank. Lyrics for acoustic guitar and electric guitar. Tablatures and chords are parodies/interpretations of the original songs. You may use it for private study, scholarship, research or language learning purposes only