» » »

Goldfinger, Pictures Tabs (ver.1)

Artists:  A B C D E F G H I J K L M N O P Q R S T U V W X Y Z # 

Pictures Tabs (ver.1)

Goldfinger Tabs
 Rating:
4/5 (4 votes)
Pictures lessons Tabs too difficult? Try these video lessons and learn fast
                

   A        F#m      D        E        A        F#m
e|-5-5-5-5--2-2-2-2--5-5-5-5--7-7-7-7--5-5-5-5--2-2-2-2-------------------------------------|
B|-5-5-5-5--2-2-2-2--7-7-7-7--9-9-9-9--5-5-5-5--2-2-2-2------------------------------------|
G|-6-6-6-6--2-2-2-2--7-7-7-7--9-9-9-9--6-6-6-6--2-2-2-2------------------------------------|
D|-7-7-7-7--4-4-4-4--7-7-7-7--9-9-9-9--7-7-7-7--4-4-4-4-----------4-6---------------------|
A|-7-7-7-7--4-4-4-4--5-5-5-5--7-7-7-7--7-7-7-7--4-4-4-4--2-4-5-7-------------------------|
E|-5-5-5-5--2-2-2-2--5-5-5-5--7-7-7-7--5-5-5-5--2-2-2-2-------------------------------------|
  repeat this twice, leaving out the few notes in the end    

                                    (build)
   G        F#m      G        E5 A5
e|-3-3-3-3--2-2-2-2--3-3-3-3------------------------------------------------------|
B|-3-3-3-3--2-2-2-2--3-3-3-3------------------------------------------------------|
G|-4-4-4-4--2-2-2-2--4-4-4-4-----2------------------------------------------------|
D|-5-5-5-5--4-4-4-4--5-5-5-5--2--2------------------------------------------------|
A|-5-5-5-5--4-4-4-4--5-5-5-5--2---------------------------------------------------|
E|-3-3-3-3--2-2-2-2--3-3-3-3------------------------------------------------------|
  so here I am and you're not...

   A           F#m      G        F#m      A          F#m     D
e|-5-5-5-5--2-2-2-2--x-3-x-3--x-2-x-2--5-5-5-5--2-2-2-2--5-----------------------------------|
B|-5-5-5-5--2-2-2-2--x-3-x-3--x-2-x-2--5-5-5-5--2-2-2-2--7-----------------------------------|
G|-6-6-6-6--2-2-2-2--x-4-x-4--x-2-x-2--6-6-6-6--2-2-2-2--7-----------------------------------|
D|-7-7-7-7--4-4-4-4--x-5-x-5--x-4-x-4--7-7-7-7--4-4-4-4--7-----------------------------------|
A|-7-7-7-7--4-4-4-4--x-5-x-5--x-4-x-4--7-7-7-7--4-4-4-4--5-----------------------------------|
E|-5-5-5-5--2-2-2-2--x-3-x-3--x-2-x-2--5-5-5-5--2-2-2-2--5-----------------------------------|
  all I want...
            
Submit corrections

comments powered by Disqus
↑ Back to top | Goldfinger Tabs for Pictures. Lyrics for acoustic guitar and electric guitar. Tablatures and chords are parodies/interpretations of the original songs. You may use it for private study, scholarship, research or language learning purposes only