>
 >
Only A Day

Only A Day Guitar Tabs

Goldfinger - Only A Day chords, tabs, tablatures, lyrics

Guitar lessons | Add/correct | Request | Top 50 tabs Artists:  A B C D E F G H I J K L M N O P Q R S T U V W X Y Z 0-9

Only A Day Guitar Tabs – Goldfinger

CD, Sheet music, Poster

Do you like Only A Day? Share with your friends now
Tabs
Goldfinger - Only a Day

INTRO

     F#     E      C      D     F#     E      C      B
E-------------------------------------------------------
B-------------------------------------------------------
G-------------------------------------------------------
D-------------------------------------------------------
A------------------3-3--3-5-5-----------------3-3--3-2-2
E--0-2-2--2-0-0--0------------0-2-2--2-0-0--0-----------

Hold out G

VERSE One guitar plays the power chords; the other plays the notes.

   D  C  G   D   D  C  G  A
E--------------------------
B--------------------------
G--------------------------
D--------------------------
A--5--7--10--9---5--7--2--0
E--------------------------

CHORUS 

A  G	   D  C  G   D		A  G	   D  C  G   D   D  C  G  A

	E-------------			E--------------------------
	B-------------			B--------------------------
	G-------------			G--------------------------
	D-------------			D--------------------------
	A--5--7--10--9			A--5--7--10--9---5--7--2--0
	E-------------			E--------------------------

VERSE

CHORUS

BRIDGE

F# E C B F# E C D G

VERSE softly 2x

D  C  G  D   D  C  G  A

VERSE up a whole step

E  D  A  E   E  D  A  B 


CHORUS a whole step up

B A	   E  D  A   E		B A	

	E--------------			
	B--------------			
	G--------------			
	D--------------			
	A--7--9--12--11			
	E--------------			

END of CHORUS 2x

I've lost you       I've lost you

 	  E  D  A   E    	E  D  A  B
	E---------------------------------
	B---------------------------------
	G---------------------------------
	D---------------------------------
	A-7--9--12--11----------7--9--4--2
	E---------------------------------

OUTRO

   F# F# E  F#
E-------------
B-------------
G-------------
D--4--4--2--4-
A--4--4--2--4-
E--2--2--0--2-





Comments


Popular Goldfinger tabs & chords
Counting The Days Bass Tabs
My Girlfriend's Shower Sucks Bass Tabs
Wasted Bass Tabs
Free Me 2 Chords
Upper Hand Chords
My Head Drum Tabs
Here In Your Bedroom 1 Tabs
Is She Really Going Out With Him? Tabs
Miles Away Tabs
Open Your Eyes Tabs


Song lyrics



↑ Back to top | Tablatures and chords are parodies/interpretations of the original songs. You may use it for private study, scholarship, research or language learning purposes only
© 2014 AZChords.com Contact us | Privacy policy | DMCA | Add/correct tabs | Request tabs | Top 50 tabs