» » »

Goldfinger, Loneliest Place Bass tabs (ver.1)

Artists:  A B C D E F G H I J K L M N O P Q R S T U V W X Y Z # 

Loneliest Place Bass tabs (ver.1)

Goldfinger Tabs
 Rating:
4/5 (4 votes)
Loneliest Place lessons Tabs too difficult? Try these video lessons and learn fast
1
                Goldfinger: Loneliest Place


****NOTE*****
Play in order written

1. Intro 2x
------4--------2-2-2-42----4--4-54----5----5--------------------
-55-----7-5---2-2---------5--5-------5-5--5-5-------------------
----5-------0------------5----------3----3----------------------

2. Verse
-----4457-------------------------------------------------------
-55------------22-32--5-5---------22-3--------------------------
----7------3-3-----------22-35-3--------------------------------

3. Verse: Second Time
-----4457-------------------------------------------------------
-5-5----------22-32--5-5---------22-3---------------------------
-----------3-3-----------22-35-3--------------------------------

4. Chorus
---5-23-----------5-32----7-54----------------------------------
-3--------23-5--3-------0---------------------------------------
--------3-------------------------------------------------------

5. Verse 2x
------4--------2-2-2-42----4--4-54----5----5--------------------
-55-----7-5---2-2---------5--5-------5-5--5-5-------------------
----5-------0------------5----------3----3----------------------

6.
-----4457-------------------------------------------------------
-55------------22-32--5-5---------22-3--------------------------
----7------3-3-----------22-35-3--------------------------------

7. Verse: Second Time
-----4457-------------------------------------------------------
-5-5----------22-32--5-5---------22-3---------------------------
-----------3-3-----------22-35-3--------------------------------

8. Chorus
---5-23-----------5-32----------------7-54----------------------
-3--------23-5--3---------23-5-3----0---------------------------
--------3---------------3---------------------------------------
9. 2x
------4--------2-2-2-42----4--4-54----5----5--------------------
-55-----7-5---2-2---------5--5-------5-5--5-5-------------------
----5-------0------------5----------3----3----------------------

10. 
-----4457-------------------------------------------------------
-55------------22-32--5-5---------22-3--------------------------
----7------3-3-----------22-35-3--------------------------------

11. Second Time
-----4457-------------------------------------------------------
-5-5----------22-32--5-5---------22-3---------------------------
-----------3-3-----------22-35-3--------------------------------

12. As 8. 2x

13. As 1. Play to end
            
Submit corrections

comments powered by Disqus
↑ Back to top | Goldfinger Bass for Loneliest Place. Lyrics for acoustic guitar and electric guitar. 1 Tablatures and chords are parodies/interpretations of the original songs. You may use it for private study, scholarship, research or language learning purposes only