>
 >
King For A Day

King For A Day Guitar Tabs

Goldfinger - King For A Day chords, tabs, tablatures, lyrics

Guitar lessons | Add/correct | Request | Top 50 tabs Artists:  A B C D E F G H I J K L M N O P Q R S T U V W X Y Z 0-9

King For A Day Guitar Tabs – Goldfinger

CD, Sheet music, Poster

Do you like King For A Day? Share with your friends now
Tabs
"King For A Day" By Goldfinger
Standard Tuning

Intro (Clean):
--------------------------------------------------------
--------------------------------------------------------
--------------------------------------------------------
-------------------------2---2---2---------5-5---------5
-5-5-----5-5-5---5-3---3---3---3-------5-----------5----
-----5-5-------5-------------------3-3---3-----3-3---3--

Intro part 2
Play these chords up-picking, ska style
-5--5--5--5--3--3--3--3--3--3--3--3--1--1--3--3
-7--7--7--7--5--5--5--5--3--3--3--3--3--3--5--5
-7--7--7--7--5--5--5--5--4--4--4--4--3--3--5--5
-7--7--7--7--5--5--5--5--5--5--5--5--3--3--5--5
-5--5--5--5--3--3--3--3--5--5--5--5--1--1--3--3
-----------------------------------------------

-5--5--5--5--3--3--3--3--3--3--3--3--1--1--1--1
-7--7--7--7--5--5--5--5--3--3--3--3--3--3--1--1
-7--7--7--7--5--5--5--5--4--4--4--4--3--3--2--2
-7--7--7--7--5--5--5--5--5--5--5--5--3--3--3--3
-5--5--5--5--3--3--3--3--5--5--5--5--1--1--3--3
-----------------------------------------------

Verse
-3--3--3--3--1--1--1--1--3--3--3--3--1--1--1--1
-5--5--5--5--3--3--3--3--5--5--5--5--1--1--1--1
-5--5--5--5--3--3--3--3--5--5--5--5--2--2--2--2
-5--5--5--5--3--3--3--3--5--5--5--5--3--3--3--3
-3--3--3--3--1--1--1--1--3--3--3--3--4--4--4--4
-----------------------------------------------

Prechorus						 Then silent for a moment
-4--4--4--4--------------------------------------------------------
-4--4--4--4--8--8--8--8--10--10--10--10-10-------------------------
-5--5--5--5--8--8--8--8--10--10--10--10-10-------------------------
-6--6--6--6--8--8--8--8--10--10--10--10-10-------------------------
-4--4--4--4--6--6--6--6---8---8---8---8--8-------------------------
-4--4--4--4--------------------------------------------------------

Chorus
-5--5--5--5--3--3--3--3--3--3--3--3--1--1--3--3
-7--7--7--7--5--5--5--5--3--3--3--3--3--3--5--5
-7--7--7--7--5--5--5--5--4--4--4--4--3--3--5--5
-7--7--7--7--5--5--5--5--5--5--5--5--3--3--5--5
-5--5--5--5--3--3--3--3--5--5--5--5--1--1--3--3
-----------------------------------------------

-5--5--5--5--3--3--3--3--3--3--3--3--1--1--1--1
-7--7--7--7--5--5--5--5--3--3--3--3--3--3--1--1
-7--7--7--7--5--5--5--5--4--4--4--4--3--3--2--2
-7--7--7--7--5--5--5--5--5--5--5--5--3--3--3--3
-5--5--5--5--3--3--3--3--5--5--5--5--1--1--3--3
-----------------------------------------------

2nd Verse - No Guitar

2nd Prechorus - No Guitar

Chorus 2 Is played twice, but guitar only plays 1st time
-5--5--5--5--3--3--3--3--3--3--3--3--1--1--3--3
-7--7--7--7--5--5--5--5--3--3--3--3--3--3--5--5
-7--7--7--7--5--5--5--5--4--4--4--4--3--3--5--5
-7--7--7--7--5--5--5--5--5--5--5--5--3--3--5--5
-5--5--5--5--3--3--3--3--5--5--5--5--1--1--3--3
-----------------------------------------------

-5--5--5--5--3--3--3--3--3--3--3--3--1--1--1--1
-7--7--7--7--5--5--5--5--3--3--3--3--3--3--1--1
-7--7--7--7--5--5--5--5--4--4--4--4--3--3--2--2
-7--7--7--7--5--5--5--5--5--5--5--5--3--3--3--3
-5--5--5--5--3--3--3--3--5--5--5--5--1--1--3--3
-----------------------------------------------

Bridge (Distortion):
Guitar 1
-----------------------------------------
-----------------------------------------
-----------------------------------------
-5-4-----5-4-7--5------------------------
-----7-5----------7-5-----------------5-7
----------------------8-5-3-3-3-5-6-8----

Guitar 2			(PM)
----------------------------------------
----------------------------------------
-7-7-7-7-5-5-5-5------------------------
-7-7-7-7-5-5-5-5-5-5-5-5-8-8-8-8-8-8-8-8
-5-5-5-5-3-3-3-3-5-5-5-5-8-8-8-8-8-8-8-8
-----------------3-3-3-3-6-6-6-6-6-6-6-6

Verse 3 (PM)
--------------------------------
--------------------------------
-5-5-5-5-3-3-3-3-5-5-5-5-3-3-3-3
-5-5-5-5-3-3-3-3-5-5-5-5-3-3-3-3
-3-3-3-3-1-1-1-1-3-3-3-3-1-1-1-1
--------------------------------

Pre Chorus 3
---------------------------------
---------------------------------
---------8-8-8-8-10-10-10-10-10--
-6-6-6-6-8-8-8-8-10-10-10-10-10-5
-4-4-4-4-6-6-6-6--8--8--8--8--8-5
-4-4-4-4------------------------3

Chorus 3

Guitar 1
--------------------------------------------
--------------------------------------------
-7-7-7-7-5-5-5-5----------------------------
-7-7-7-7-5-5-5-5-5-5-5-5-8-8-8-8-10-10-10-10
-5-5-5-5-3-3-3-3-5-5-5-5-8-8-8-8-10-10-10-10
-----------------3-3-3-3-6-6-6-6--8--8--8--8

Repeat this part 4x
------------------------------------------
------------------------------------------
-7-7-7-7-5-5-5-5--------------------------
-7-7-7-7-5-5-5-5-5-5-5-5-x-8-x-8-x-10-x-10
-5-5-5-5-3-3-3-3-5-5-5-5-x-8-x-8-x-10-x-10
-----------------3-3-3-3-x-6-x-6-x--8-x--8

After Guitar 1 goes through the chorus once Guitar 2 Plays:
-------------------------
-------------------------
-------------------------
---4-5-4------5-4---5-4--
-7-------7-5------7-----7
-------------------------

And Thats It. Questions, Comments Suggestions?





Comments


Popular Goldfinger tabs & chords
Forgiveness Bass Tabs
Spokesman Bass Tabs
The Innocent Bass Tabs
The Innocent 2 Bass Tabs
Tony Hawk 4 Song Bass Tabs
Spokesman Chords
Superman 2 Chords
January Tabs
Mable 2 Tabs
Wake Up Tabs


Song lyrics



↑ Back to top | Tablatures and chords are parodies/interpretations of the original songs. You may use it for private study, scholarship, research or language learning purposes only
© 2014 AZChords.com Contact us | Privacy policy | DMCA | Add/correct tabs | Request tabs | Top 50 tabs