» » »

January Bass tabs (ver.1)

Artists:  A B C D E F G H I J K L M N O P Q R S T U V W X Y Z # 

January Bass tabs (ver.1)

Goldfinger
Rating:
0/5 (0 votes)

Tabs too difficult? Try these video lessons and learn fast.
                -------------------------------------------------------------------------------
			     January - Goldfinger
-------------------------------------------------------------------------------


Tuning: EADG

Intro x2
G|---------------------------------------------------------------------------|
D|----------------------------7------7----7---7------------------------------|
A|------7------7----7---7--000---0000---00---0-------------------------------|
E|--000---0000---00---0------------------------------------------------------|

Verse 0:10 x4
G|---------------------------------------------------------------------------|
D|---------------------------------------------------------------------------|
A|---------------------------------------------------------------------------|
E|--0000000000000000-5555555555555555----------------------------------------|

Pre-chorus 0:31 x1
G|---------------------------------------------------------------------------|
D|---------------------------------------------------------------------------|
A|---------------------------------------------------------------------------|
E|--2222222222222222-5555555555555555----------------------------------------|
Continued x1
G|---------------------------------------------------------------------------|
D|---------------------------------------------------------------------------|
A|---------------------------------------------------------------------------|
E|--2222222222222222-55-5-55-5-----------------------------------------------|

Chorus (on the 2nd time, let the A2 ring out).
G|---------------------------------------------------------------------------|
D|---------------------------------------------------------------------------|
A|-------------------4444444444444444-2222222222222222-0000000000000000------|
E|--0000000000000000---------------------------------------------------------|

Intro x1
Verse x4
Pre-chorus
Chorus

Break 2:07 ("January, February, March April May"...)
G|---------------------------------------------------------------------------|
D|---------------------------------------------------------------------------|
A|-------------------4444444444444444-2222222222222222-0000000000000000------|
E|--0000000000000000---------------------------------------------------------|

This is a great song by Goldfinger. If I have missed anything out then I'm sorry but it 
right all the way through when I play it.

| /  slide up
| \  slide down
| h  hammer-on
| p  pull-off
| ~  vibrato
| +  harmonic
| x  Mute note
===============================================================================
            
Tabs too difficult? Try these video lessons and learn fast.




comments powered by Disqus
↑ Back to top | Tablatures and chords are parodies/interpretations of the original songs. You may use it for private study, scholarship, research or language learning purposes only