>
 >
I Want

I Want Bass Tabs

Goldfinger - I Want chords, tabs, tablatures, lyrics

Guitar lessons | Add/correct | Request | Top 50 tabs Artists:  A B C D E F G H I J K L M N O P Q R S T U V W X Y Z 0-9

I Want Bass Tabs – Goldfinger

CD, Sheet music, Poster

Do you like I Want? Share with your friends now
Bass TabsTabsTabs v2
Band: Godfinger Title: I want


This is the matching bass tab to my version of the goldfinger guitartab
hope it's allright and you enjoy it


Intro
G----------------------------------------------------------------|
D----------------------------------------------------------------|
A-5--------------------------------------------------------------|
E---5------------------------------------------------------------|


Verse
G----------------------------------------------------------------|
D----------------------------------------------------------------|
A-----------------444--------------------------------5-----------|
E-222-222-333-333-----333-333-222-222-333-55-555-555---5---------|

G----------------------------------------------------------------|
D----------------------------------------------------------------|
A-----------------444--------------------------------9-7---------|
E-222-222-333-333-----333-333-222-222-333-55-555-555-------------|


Refrain
G----------------------------------------------------------------|
D----------------------------------------------------------------|
A----55---------------55555--------------------------------------|
E-55----22222-3333333-------55555555-222-333-555-6-5-------------|

G----------------------------------------------------------------|
D----------------------------------------------------------------|
A----55---------------55555----------------5---------------------|
E-55----22222-3333333-------55555555-3-5-6---5-------------------|


Bridge
G----------------------------------------------------------------|
D----------------------------------------------------------------|
A-----5->7----7------5------5->7---------------------------------|
E-7-7------55--5-3-3---3-33--------------------------------------|

G----------------------------------------------------------------|
D----------------------------------------------------------------|
A-----5->7----7------5-55-77-5-4-5-------------------------------|
E-7-7------55--5-3-3---------------------------------------------|

(the last part of the bridge but the second time)
G----------------------------------------------------------------|
D----------------------------------------------------------------|
A-----5->7----7----5---5-----------------------------------------|
E-7-7------55--5-3---3---5---------------------------------------|


Intro
Verse 
Refrain
Verse
Refrain
Bridge x2
just the second part of the Verse
Refrain x 2





Comments


Popular Goldfinger tabs & chords
Anxiety Bass Tabs
Counting The Days 1 Bass Tabs
99 Red Balloons Chords
Wasted Chords
Upper Hand Drum Tabs
Decision 1 Tabs
Here In Your Bedroom Tabs
Miles Away Tabs
Wayne Gretzky Tabs
Upper Hand Ukulele


Song lyrics



↑ Back to top | Tablatures and chords are parodies/interpretations of the original songs. You may use it for private study, scholarship, research or language learning purposes only
© 2014 AZChords.com Contact us | Privacy policy | DMCA | Add/correct tabs | Request tabs | Top 50 tabs