» » »

Goldfinger, It Isn't Just Me Tabs (ver.1)

Artists:  A B C D E F G H I J K L M N O P Q R S T U V W X Y Z # 

It Isn't Just Me Tabs (ver.1)

Goldfinger Tabs
Rating:
0/5 (0 votes)
It Isn't Just Me lessons Tabs too difficult? Try these video lessons and learn fast
                Goldfinger - It Isn't Just Me.  

This song is right before the "Chicken McNuggets" song on Hang Ups

VERSE 1 2x (play each chord 2x using bass notes)

   Em  Am  D   G

E---------------
B----------7----
G--9-------7---4
D--9---7---7---5
A--7---7---5---5
E------5-------3

VERSE 2 2x (play each chord 4x using bass notes)

   F    Em

E--------
B--------
G--10---9
D--10---9
A--8----7
E--------

VERSE 1 2x

VERSE 2 2x

VERSE 3 2x

E--5--3--5--5
B--5--3--7--5
G--6--4--7--6
D--7--5--7--7
A--7--5--5--7
E--5--3-----5

VERSE 4 

   Bb F   Eb  Bb F   Eb Dm

E--6--8---6---6--8---6--5
B--6--10--8---6--10--8--6
G--7--10--8---7--10--8--7
D--8--10--8---8--10--8--7
A--8--8---6---8--8---6--5
E--6----------6---------- 

VERSE 1 2x

VERSE 3 2x

VERSE 4 

VERSE 1 with accordion
            
Submit corrections

comments powered by Disqus
↑ Back to top | Goldfinger Tabs for It Isn't Just Me. Lyrics for acoustic guitar and electric guitar. Tablatures and chords are parodies/interpretations of the original songs. You may use it for private study, scholarship, research or language learning purposes only