>
 >
I'm Down

I'm Down Guitar Tabs

Goldfinger - I'm Down chords, tabs, tablatures, lyrics

Guitar lessons | Add/correct | Request | Top 50 tabs Artists:  A B C D E F G H I J K L M N O P Q R S T U V W X Y Z 0-9

I'm Down Guitar Tabs – Goldfinger

CD, Sheet music, Poster

Do you like I'm Down? Share with your friends now
Bass TabsBass Tabs v2Tabs
Goldfinger 		- 		I'm Down 
I pieced together from only one version on the net so I now some bits sound
wrong...still, no worries eh!
 
INTRO/VERSE - Stummed softly without distortion (or just use normal oopen chords)
E---33333333-55555555-00000000-33333333----
B---33333333-55555555-00000000-33333333----
G---44444444-77777777-11111111-55555555----
D---55555555-77777777-22222222-55555555----
A---55555555-55555555-22222222-33333333----
E---33333333----------00000000-------------

G		       D			 
  What the hell do you know you say as you 
 Em 			       C 
 turn your face right back to me?
G		       D			   
  What the hell do you know you say like some 
Em			    C
  righteous man better than me?

CHORUS
E------------------------------------------
B------------------------------------------
G----------5-5----------5------------------
D--7-7-x-x-5-5--7-7-x-x-5------------------
A--7-7-x-x-3-3--7-7-x-x-3------------------
E--5-5-x-x------5-5-x-x--------------------
	 Am		  C
Well I'm down, and you're killing me.
         Am 	   C
Well I'm down, and still you mean nothing to me.

VERSE 2x - bass with no words then two "C" chords
VERSE 2x - bass and guitar with no words

VERSE
E------------------------------------------
B------------------------------------------
G------------77777777----------55555555----
D---55555555-77777777-22222222-55555555----
A---55555555-55555555-22222222-33333333----
E---33333333----------00000000-------------
G	               D			 
  What the hell do you know you say as you 
 Em 			   C
  try to shrink me to your size?
G		       D			   
  What the hell do you know you say you
 Em			            C
  judge 'cause you're too scared to try?

CHORUS
E------------------------------------------
B------------------------------------------
G----------5-5----------5-5----------------
D--7-7-x-x-5-5--7-7-x-x-5-5----------------
A--7-7-x-x-3-3--7-7-x-x-3-3----------------
E--5-5-x-x------5-5-x-x -------------------
	 Am		  C
Well I'm down, and you're killing me.
         Am 	   C
Well I'm down, and still you mean nothing to me.

SOLO 
E------------------------------------
B------------------------------------
G--7-7-7-7-5-4----------4-4-4-4------
D--------------7------7---------7-5-5
A-----------------5------------------
E------------------------------------

E--10-10-10-10-8-7--------8-7---7--8---10b
B------------------10---------8------8----
G---------------------7-------------------
D-----------------------------------------
A-----------------------------------------
E-----------------------------------------


VERSE (bass only until "But you won't" where guitar plays triplets)
E------------------------------------------
B------------------------------------------
G------------777777------------555555------
D---555555---777777---222222---555555------
A---555555---555555---222222---333333------
E---333333------------000000---------------
    ******   ******   ******   ******
G       D  Em 		    C
Here we go singing the same song you've heard a 
G	 D	 Em			C
thousand times.  You think you know the answer.
G                  D       
But you won't try it.
Em 	     C
And you deny it.  It's the
G         D
same *** song you've heard a
Em       C
thousand times.

CHORUS 2 (listen for exact rhythms)
E----------------------------------------------------------------------------------
B----------------------------------------------------------------------------------
G----------5-5-x---------5-5-x-----------------------------------------------------
D--7-7-x-x-5-5-x-7-7-x-x-5-5-x-3-3-xx-3-3-xx-3-3-xx-3-3-xx-5-5-xx-5-5-xx-5-5-xx-5-5
A--7-7-x-x-3-3-x-7-7-x-x-3-3x-3-3-xx-3-3-xx-3-3-xx-3-3-xx-5-5-xx-5-5-xx-5-5-xx-5-5
E--5-5-x-x-------5-5-x-x ------1-1-xx-1-1-xx-1-1-xx-1-1-xx-3-3-xx-3-3-xx-3-3-xx-3-3
	 Am		  C
Well I'm down, and you're killing me.
	 Am		  C
Well I'm down, and you're killing me.
	 F		 G
Well I'm down.  Yeah I'm down.

BREAK
Guitar 1 plays F, E, F, E power chords
Guitar 2 plays single notes
E--1--1-1--1-1--0--0-0--0-0--1--1-1--1-1--0
B------------------------------------------
G------------------------------------------
D--33333333-22222222-33333333-2------------
A--33333333-22222222-33333333-2------------
E--11111111-00000000-11111111-0------------
 
VERSE - a whole step up
E------------------------------------------
B------------------------------------------
G------------222222------------777777------
D------------222222---444444---777777------
A------------000000---444444---555555------
E---------------------222222---------------
		       E			 
  What the hell do you know you say?  Well I  
  F#m 		             D
  think I know way more than you.

E------------------------------------------
B------------------------------------------
G------------------------------777777------
D---777777---222222---444444---777777------
A---777777---222222---444444---555555------
E---555555---000000---222222---------------
A		       E			   
  What the hell do you know you say 'cause I 
  F#m		      D	      
  know to myself I am true.

CHORUS 2 (soft at first)
E------------------------------------------
B------------------------------------------
G----------7-7----------7-7----------------
D--9-9-x-x-7-7--9-9-x-x-7-7----------------
A--9-9-x-x-5-5--9-9-x-x-5-5----------X2----
E--7-7-x-x------7-7-x-x -------------------

	 Bm		  D
Well I'm down, and you're killing me.
	 Bm		  D
Well I'm down, and you're killing me.
	    Bm		    D
When you're down, well I'll walk away.
	    Bm	  D
When you're down, still you mean *** all to me.


SOLO 2
E--12-12-12-12-10-9--------10-9----9--10----12b
B-------------------12----------10-------10----
G----------------------9-----------------------
D----------------------------------------------
A----------------------------------------------
E----------------------------------------------

D7:
A7:
E5:      A
Yeah, nothing to me.





Comments


Popular Goldfinger tabs & chords
99 Red Balloons 3 Bass Tabs
Fuck You And Your Cat Bass Tabs
Superman 3 Bass Tabs
Behind The Mask Chords
San Simeon Chords
Stay Chords
Chicken Mcnuggets Tabs
Just Like Heaven Tabs
More Today Than Yesterday Tabs
The Kids Are Alright 1 Tabs


Song lyrics



↑ Back to top | Tablatures and chords are parodies/interpretations of the original songs. You may use it for private study, scholarship, research or language learning purposes only
© 2014 AZChords.com Contact us | Privacy policy | DMCA | Add/correct tabs | Request tabs | Top 50 tabs