» » »

Goldfinger, I Believe Tabs (ver.1)

Artists:  A B C D E F G H I J K L M N O P Q R S T U V W X Y Z # 

I Believe Tabs (ver.1)

Goldfinger Tabs
Rating:
0/5 (0 votes)
I Believe lessons Tabs too difficult? Try these video lessons and learn fast
                intro:
E-------------------------------------
B-------------------------------------
G--5-5-5-x----------------------------
D--5-5-5-x--5-5-5-x--7-7-7-x--3-3-3-x-
A--3-3-3-x--5-5-5-x--7-7-7-x--3-3-3-x-
E-----------3-3-3-x--5-5-5-x--1-1-1-x-
P.M.---------------------------------> 

2nd guitar:
E-------
B-------
G--7\-5-
D-------
A-------
E-------

pre-chorus:
E-----------------------------------------------
B-----------------------------------------------
G--------------------------------------------5-<let ring
D--3-3-3-3-3-3---5-5-5-5-5-5---2-2-2-2-2-----5--
A--3-3-3-3-3-3---5-5-5-5-5-5---2-2-2-2-2-----3--
E--1-1-1-1-1-1---3-3-3-3-3-3---O-O-O-O-O-------
Chorus:
E---------------------------------
B---------------------------------
G--5-5----------------------------
D--5-5----5-5----2-2----3-3-------
A--3-3----5-5----2-2----3-3-------
E---------3-3----O-O----1-1-------
verse 2:
E---------------------------------
B---------------------------------
G--5-5----------------------------
D--5-5----5-5----7-7----3-3-------
A--3-3----5-5----7-7----3-3-------
E---------3-3----5-5----1-1-------
verse 3
E-------------------------
B-------------------------
G--5-----------5----------
D--5-x4--3-----5-x4--5----
A--3-----3-x4--3-----5-x4-
E--------1-----------3----
end of verse 3:
E------------------
B------------------
G------------------
D--5----7-----7----
A--5-x4-7-x4--7-x4-
E--3----5-----9----
Ska verse:
E--8--
B--8--
G--5--
D-----
A-----
E-----
verse 4:
E--------------------
B--------------------
G--7-7-------4-4-----
D--7-7--7-7--4-4--5-5
A--5-5--7-7--2-2--5-5
E-------5-5-------3-3
outro:
E----------------------
B----------------------
G--7-7-----------------
D--7-7--7-7--9-9----5-5
A--5-5--7-7--9-9----5-5
E-------5-5--7-7----3-3
Layout:
Intro x 4 (P.M.)
Pre-Chorus x 1
chorus x 2
verse 2 x 4
verse 2 x 2 (P.M.)
Pre-Chorus x 1
Chorus x 2
verse 2 x 2
verse 2 x 4 (P.M.)
Pre-Chorus x1
Chorus x 2
verse 3 x 2
end of verse 3
Ska Verse x 10
verse 4 x 2
outro x 4 (end half way on the 4 time)

Notes: This is off there first CD-"Richter", hope ya enjoy it. Listen to the song a couple of times for the correct timing and all.
~PeAce
            
Submit corrections

comments powered by Disqus
↑ Back to top | Goldfinger Tabs for I Believe. Lyrics for acoustic guitar and electric guitar. Tablatures and chords are parodies/interpretations of the original songs. You may use it for private study, scholarship, research or language learning purposes only