>
 >
Happy

Happy Bass Tabs

Goldfinger - Happy chords, tabs, tablatures, lyrics

Guitar lessons | Add/correct | Request | Top 50 tabs Artists:  A B C D E F G H I J K L M N O P Q R S T U V W X Y Z 0-9

Happy Bass Tabs – Goldfinger

CD, Sheet music, Poster

Do you like Happy? Share with your friends now
Bass TabsChordsTabsTabs v2
Intro
G|--------------|--------------------------------------------------------|
D|-/14----------|--------------------------------------------------------|
A|--------------|-------2-2-0-000-22-------2-4-5-12-12-12-12-11-11-11-11-|
E|-----/12/12-|-00000--------------00000-------------------------------|

Verse
G|-----------------------------|---------------------------------|
D|-----------------------------|---------------------------------|
A|-7777-----------/12-12-12-12-|-7777------12119/11/12119/11-|
E|------7777-5555/-------------|------7777-----------------------|

G|---------------------------|------------------------|
D|---------------------------|----7/9---9-777-6-777-6-|
A|-7777----------------------|-77-----9---------------|
E|------7777-5/4/24/542/4-|------------------------|

Prechorus
G|--------------------|
D|--------------------|
A|--------------------|
E|-222222-4-555555-77-|

Chorus
G|---------------------------------------|-----------------------------------------|
D|---------------------------------------|-------------------------------7777-6666-|
A|-------2-00-0000-22--------------------|-------2-00-0000-22-------2-55-----------|
E|-00000--------------222222-4-5555555-7-|-00000--------------00000----------------|


Verse2
G|----|----------------------------------------|
D|----|----9------11---------14----------14----|
A|-7>-|-77---7-99----9-12-12----12-12-12----12-|
E|----|----------------------------------------|

-prechorus

Chorus
G|--------------------------------------|------------------------|
D|--------------13-14-14-14-13-14-14-14-|------------------------|
A|-------2-00---------------------------|-------2-55----77----77-|
E|-00000--------------------------------|-00000------55----55----|

G|------------------------------------|------------------------------------|
D|------------------------------------|------------13-14-14-14-13-14-14-14-|
A|-------2-00-12----10-11-14----13-14-|-------2-55-------------------------|
E|-00000---------12----------14-------|-00000------------------------------|

Bridge
G|-----------------------------------------|
D|-----------------------------------------|
A|-----7h-7h-------------------------------|
E|-0~--------0-0-2-5-4-0-2-5-4-0-2-5-4-5-5-|

Verse
G|----------------------------|------------------------------|
D|----------------------11-12-|---6h7-8-9---9-7777-6-7-------|
A|-777-----/12-12-11-12-------|-7---------9------------4-5-6-|
E|-----777/-------------------|------------------------------|

Prechorus
G|-----------------|
D|-----------------|
A|-----------------|
E|-22222222-555555-|

Bridge
G|-----------------------------------|----------------------------------|
D|-----------------------------------|-----------------11-12-11---------|
A|-7777/9999/12-12-11-12-12-12-11-12-|-7777/9999/12-12----------12-11-9-|
E|-----------------------------------|----------------------------------|

G|--------------------|
D|--------------------|
A|--------------------|
E|-0000-2222-55555555-|

Chorus
G|---------------------|-------------------------------------|
D|---------------------|-------------------14----------14----|
A|-------2-00-5555-4-2-|-77777-2-55-12-12----12-12-12----12-|
E|-00000---------------|-------------------------------------|

G|--------------------------|--------------|
D|--------------------------|--------------|
A|-------2-00---------------|-77777-2-55~-|
E|-00000------55-2-4-55-2-4-|--------------|





Comments


Popular Goldfinger tabs & chords
Forgiveness Bass Tabs
Going Home Bass Tabs
Smp Bass Tabs
*** You And Your Cat Tabs
99 Red Balloons 4 Tabs
Chicken Mcnuggets Tabs
Counting The Days 1 Tabs
Get Up 1 Tabs
20 Cent Goodbye Ukulele
Without Me Ukulele


Song lyrics



↑ Back to top | Tablatures and chords are parodies/interpretations of the original songs. You may use it for private study, scholarship, research or language learning purposes only
© 2014 AZChords.com Contact us | Privacy policy | DMCA | Add/correct tabs | Request tabs | Top 50 tabs