>
 >
Goldfinger-Here In Your Bedroom

Goldfinger-Here In Your Bedroom Guitar Tabs

Goldfinger - Goldfinger-Here In Your Bedroom chords, tabs, tablatures, lyrics

Guitar lessons | Add/correct | Request | Top 50 tabs Artists:  A B C D E F G H I J K L M N O P Q R S T U V W X Y Z 0-9

Goldfinger-Here In Your Bedroom Guitar Tabs – Goldfinger

CD, Sheet music, Poster

Do you like Goldfinger-Here In Your Bedroom? Share with your friends now
Tabs
*Here in Your Bedroom
*Goldfinger

Intro
-------------6-6-7-9--------------------------------4-4-5-7--------------------------
---7-7-7-7--------------------6-6-7-6---5-5-5-5--------------------4-4-5-4------
----------------------7-7-7-7--------------------------------5-5-5-5-----------------

-------------------------6-4---4-----------------------------------------------------
-------------6-6-7-9--------8---8-7-----------4-4-5-7---------------------------
---7-7-7-7----------------------------5-5-5-5--------------------4-4-5-4--------
-----------------------------------------------------------5-5-5-5-------------------

-------------6-6-7-9--------------------------------4-4-5-7--------------------------
---7-7-7-7--------------------6-6-7-6---5-5-5-5--------------------4-4-5-4------
----------------------7-7-7-7--------------------------------5-5-5-5-----------------


Ska Upstrokes
-7-7-7-7-7-7-7-7-5-5-5-5-5-5-5-5-
-9-9-9-9-7-7-7-7-7-7-7-7-5-5-5-5-   
-9-9-9-9-8-8-8-8-7-7-7-7-6-6-6-6-2x 
-----------9-9-9-9-------7-7-7-7------  
-------------------------------------------
-------------------------------------------   

-7-7-7-7--8---8--8--8--10-10-10-10-12-12-12-12-7-7-7-7--8--8--8--8-----
-9-9-9-9-10-10-10-10-12-12-12-12-13-13-13-13-9-9-9-9-10-10-10-10--
-9-9-9-9-10-10-10-10-12-12-12-12-13-13-13-13-9-9-9-9-10-10-10-10--

Chorus
-5-5-5-5-5-5----------------3-3-3-3-3-3------------------------------------------------
-5-5-5-5-5-5-5-5-5-5-5-5-3-3-3-3-3-3-3-3-3-3-3-3--------------------------------2x
-3-3-3-3-3-3-5-5-5-5-5-5-1-1-1-1-1-1-3-3-3-3-3-3--------------------------------
----------------3-3-3-3-3-3----------------1-1-1-1-1-1----------------------------------

Verse
-9-9-9-9-9-9-----------------7-7-7-7-7-7-----------------   
-9-9-9-9-9-9-9-9-9-9-9-9-7-7-7-7-7-7-7-7-7-7-7-7-2x   
-7-7-7-7-7-7-9-9-9-9-9-9-5-5-5-5-5-5-7-7-7-7-7-7-  
-------------7-7-7-7-7-7-------------5-5-5-5-5-5---------   

-5-5-5-5-5-5-------------3-3-3-3-3-3--------------------
-5-5-5-5-5-5-5-5-5-5-3-3-3-3-3-3-3-3-3-3-3-3------2x
-3-3-3-3-3-3-5-5-5-5-5-5-1-1-1-1-1-1-3-3-3-3-3-3-
-------------3-3-3-3-3-3-------------1-1-1-1-1-1---------

-9-9-9-9-10-10-10-10-12-12-12-12-14-14-14-14-9-9-9-9-10-10-10-10----
-9-9-9-9-10-10-10-10-12-12-12-12-14-14-14-14-9-9-9-9-10-10-10-10-5-
-7-7-7-7--8--8--8--8--10-10-10-10-12-12-12-12-7-7-7-7---8--8--8--8--8-5-

Chorus
-5-5-5-5-5-5-----------------3-3-3-3-3-3------------------------------------------------
-5-5-5-5-5-5-5-5-5-5-5-5-3-3-3-3-3-3-3-3-3-3-3-3--------------------------------2x
-3-3-3-3-3-3-5-5-5-5-5-5-1-1-1-1-1-1-3-3-3-3-3-3--------------------------------
----------------3-3-3-3-3-3------------------1-1-1-1-1-1--------------------------------


Seudo- Solo
-----23-2----------------01-0-----------------23-2---------------01-0---------------
-3-3--------2-3-5--1-1--------0-1-3-3-3-3---------2-3-5--11---------------------
-----------3--------------------1---------------------3--------------------1---------------

Verse 2
-7-7-7-7-7-7-7-7-5-5-5-5-5-5-5-5---   ------------------------------------------------------------------
-9-9-9-9-7-7-7-7-7-7-7-7-5-5-5-5---   ------------------------------------------------------------------
-9-9-9-9-8-8-8-8-7-7-7-7-6-6-6-6--2x  -5-5-5-5-5-5----------------3-3-3-3-3-3------------------
------------9-9-9-9-----------7-7-7-7---     -5-5-5-5-5-5-5-5-5-5-5-5-3-3-3-3-3-3-3-3-3-3-3-3-
---------------------------------------------     -3-3-3-3-3-3-5-5-5-5-5-5-1-1-1-1-1-1-3-3-3-3-3-3-
---------------------------------------------     -----------------3-3-3-3-3-3-----------------1-1-1-1-1-1-

-5-5-5-5-5-5-------------3-3-3-3-3-3---------------------
-5-5-5-5-5-5-5-5-5-5-5-5-3-3-3-3-3-3-3-3-3-3-3-3-
-3-3-3-3-3-3-5-5-5-5-5-5-1-1-1-1-1-1-3-3-3-3-3-3-
------------------3-3-3-3-3-3----------------1-1-1-1-1-1-

9-9-9-9-10-10-10-10-12-12-12-12-14-14-14-14-9-9-9-9-10-10-10-10---------------------------------------
7-7-7-7--8--8--8--8-10-10-10-10-12-12-12-12-7-7-7-7--8--8--8--8------------------------------------------5-

Chorus
-5-5-5-5-5-5-----------------3-3-3-3-3-3--------------------------------------------------
-5-5-5-5-5-5-5-5-5-5-5-5-3-3-3-3-3-3-3-3-3-3-3-3----------------------------------4x
-3-3-3-3-3-3-5-5-5-5-5-5-1-1-1-1-1-1-3-3-3-3-3-3----------------------------------
-----------------3-3-3-3-3-3-----------------1-1-1-1-1-1----------------------------------

Seudo Solo 2
---------------------------------------------56-5--------------------3-4--------------
-----------------------------------------5-5---------4-5-7--3-3-3--------2-3-5----
-----23-2---------------01-0--------------------5----------------------3------------
-3-3--------2-3-5--1-1--------0-1-3------------------------------------------------
-----------3-------------------1--------------------------------------------------------

Ending
------------------------
------------------------
-5---7-7---9-5-5----
----------------5-5----
-3---5-5---7-3-3----
------------------------
finito!(sp)





Comments


Popular Goldfinger tabs & chords
Bro Bass Tabs
I'm Down 1 Bass Tabs
Im Down Bass Tabs
Just Like Heaven Bass Tabs
99 Red Balloons 3 Tabs
Chris Cayton Tabs
Forgiveness 1 Tabs
Tell Me Tabs
Free Kevin Kjonaas Ukulele
Without Me Ukulele


Song lyrics



↑ Back to top | Tablatures and chords are parodies/interpretations of the original songs. You may use it for private study, scholarship, research or language learning purposes only
© 2014 AZChords.com Contact us | Privacy policy | DMCA | Add/correct tabs | Request tabs | Top 50 tabs