» » »

Goldfinger, Going Home Tabs (ver.2)

Artists:  A B C D E F G H I J K L M N O P Q R S T U V W X Y Z # 

Going Home Tabs (ver.2)

Goldfinger Tabs
 Rating:
4/5 (4 votes)
Going Home lessons Tabs too difficult? Try these video lessons and learn fast
                Intro
E|---------------------------------------------------------------|
B|---------------------------------------------------------------|
G|---------------------7-7-7-7-7-7-------------------------------|
D|---------------------7-7-7-7-7-7---4-4-4-4-4-4---5-5-5-5-5-5---|
A|--Feed-Back-----5----5-5-5-5-5-5---4-4-4-4-4-4---5-5-5-5-5-5---|
E|-----------------------------------2-2-2-2-2-2---3-3-3-3-3-3---|

Fill
E|--------------|
B|--------------|
G|--------------|
D|---7-7--9-9---|
A|---7-7--9-9---|
E|---5-5--7-7---|

Verse
E|----------------------------------------------------------------|
B|----------------------------------------------------------------|
G|---7-7-7-7-7-7--------------------------------------------------|
D|---7-7-7-7-7-7--4-4-4-4-4-4--5-5-5-5-5-5-5-5-5-5-5-5--7-7--9-9--|
A|---5-5-5-5-5-5--4-4-4-4-4-4--5-5-5-5-5-5-5-5-5-5-5-5--7-7--9-9--|
E|----------------2-2-2-2-2-2--3-3-3-3-3-3-3-3-3-3-3-3--5-5--7-7--|

Pre-Chorus
E|---------------------------------------|
B|---------------------------------------|
G|---------------------------------------|
D|--9-9-9-9--7-7-7-7--5-5-5-5--7-7-7-7---|
A|--9-9-9-9--7-7-7-7--5-5-5-5--7-7-7-7---|
E|--7-7-7-7--5-5-5-5--3-3-3-3--5-5-5-5---|

Chorus
E|--------------------------------------------------------------------------|
B|--------------------------------------------------------------------------|
G|---7-7-7-7-7-7--11-11-11-11-11-11--12-12-12-12-12-12--14-14-14-14-14-14---|
D|---7-7-7-7-7-7--11-11-11-11-11-11--12-12-12-12-12-12--14-14-14-14-14-14---|
A|---5-5-5-5-5-5--9--9--9--9--9--9---10-10-10-10-10-10--12-12-12-12-12-12---|
E|--------------------------------------------------------------------------|

End Part Thing
E|------------------------------------------------------|
B|------------------(Stop really fast after this cord)--|
G|--7-7-7---------------7-------------------------------|
D|--7-7-7---------------7-------------------------------|
A|--5-5-5-(Hold)--------5-------------------------------|
E|------------------------------------------------------|
Enjoy and thanks for looking
and send corrections if needed
            
Submit corrections

comments powered by Disqus
↑ Back to top | Goldfinger Tabs for Going Home. Lyrics for acoustic guitar and electric guitar. Tablatures and chords are parodies/interpretations of the original songs. You may use it for private study, scholarship, research or language learning purposes only