>
 >
Going Home

Going Home Guitar Tabs

Goldfinger - Going Home chords, tabs, tablatures, lyrics

Guitar lessons | Add/correct | Request | Top 50 tabs Artists:  A B C D E F G H I J K L M N O P Q R S T U V W X Y Z 0-9

Going Home Guitar Tabs – Goldfinger

CD, Sheet music, Poster

Do you like Going Home? Share with your friends now
Bass TabsTabsTabs v2
e|---------------------------------------------------------------------------|
B|---7----------------------------------7------------------------------------|
G|--7-----3----4----4----4----6----6---7----3----6----6----------------------|
D|-7-----4----5----5----5----7----7---7----4----5----7-----------------------|
A|5-----4----5----5----5----7----7---5----4----5----7------------------------|
E|-----2----3----3----3----5----5--------2----3----5-------------------------|
  x6   x6   x6                       x6  x6   x9   x2

e|---------------------------------14----------------------------------------|
B|------------3-5-7-5-7-8-10-14-10----15-7-10-3-8-8-7-7-3--------------------|
G|---------------------------------------------------------------------------|
D|----4-5-7-9----------------------------------------------------------------|
A|5-5------------------------------------------------------------------------|
E|---------------------------------------------------------------------------|
(guitar 2)


(Verse 1)
  I can't do anything...                ....see you home tonight (second time)
e|-------------------------         -----------------------------------------|
B|---7---------------------         -----------------------------------------|
G|--7-----3----4----6------         -----------------------------------------|
D|-7-----4----5----7-------         -----------------------------------------|
A|5-----4----5----7--------         ---------<<<<<<<<<<<<<<<<<<--------------|
E|-----2----3----5---------         ---------<<<<<<<<<<<<<<<<<<--------------|
  x6   x6   x9   x2                           (guitar 2)

  I wanna be back in your arms...    ...seems like eternity
e|---------------------------------------------------------------------------|
B|---------------------------------------------------------------------------|
G|---8----6----4----6----8----6----4----4----3----4----6----4----3-----------|
D|--9----7----5----7----9----7----5----5----4----5----7----5----4------------|
A|-9----7----5----7----9----7----5----5----4----5----7----5----4-------------|
E|7----5----3----5----7----5----3----3----2----3----5----3----2--------------|
  x6   x6   x8   x2   x6   x6   x6   (palm mute..................)

(Chorus)
  Going Home....
e|---------------------------      ------------------------------------------|
B|---7-----------------------      ------------------------------------------|
G|--7-----3----4----6--------      ------7----11-----12-----14---------------|
D|-7-----4----5----7---------      -----7---11-----12-----14-----------------|
A|5-----4----5----7----------      ----5---9-----10-----12-------------------|
E|-----2----3----5-----------      ------------------------------------------|
  x12 x12  x12  x12                           (guitar 2)

(Verse 2)
  I cant write anything...
e|---------------------------------------------------------------------------|
B|---7----------------------------------7------------------------------------|
G|--7-----3----4----4----4----6----6---7-----3----4----6---------------------|
D|-7-----4----5----5----5----7----7---7-----4----5----7----------------------|
A|5-----4----5----5----5----7----7---5-----4----5----7-----------------------|
E|-----2----3----3----3----5----5---------2----3----5------------------------|
  (palm muted)   (NOT palm muted)   (palm muted again)

   ...see you home tonight (second time)
e|---------------------------------------------------------------------------|
B|---------------------------------------------------------------------------|
G|---------------------------------------------------------------------------|
D|---------------------------------------------------------------------------|
A|----<<<<<<<<<<<<<<<<<<<<---------------------------------------------------|
E|----<<<<<<<<<<<<<<<<<<<<---------------------------------------------------|
          (guitar 2)

  I wanna be back in LA....           ...seems like eternity
e|---------------------------------------------------------------------------|
B|----------------------------6----7-----------------------------------------|
G|---8----6----4----6----8---6----7-----4----3----4----6----4----3-----------|
D|--9----7----5----7----9---6----7-----5----4----5----7----5----4------------|
A|-9----7----5----7----9---4----5-----5----4----5----7----5----4-------------|
E|7----5----3----5----7--------------3----2----3----5----3----2--------------|
  x6   x6   x8   x2   x6   x6   x6   (palm mute.................)

  I wanna be back in LA....seems like eternity
e|---------------------------------------------------------------------------|
B|---------------------------------------------------------------------------|
G|--7----6-----4----6--------------------------------------------------------|
D|---------------------------------------------------------------------------|
A|---------------------------------------------------------------------------|
E|---------------------------------------------------------------------------|
   x12   x12  x12   x12
   (guitar 2)

  Going Home....
e|---------------------------            ------------------------------------|
B|---7-----------------------            ------------------------------------|
G|--7-----3----4----6--------            7----6-----4----6-------------------|
D|-7-----4----5----7---------            ------------------------------------|
A|5-----4----5----7----------            ------------------------------------|
E|-----2----3----5-----------            ------------------------------------|
                                         (guitar 2)
  ...on our way back home
e|---------------------------------------------------------------------------|
B|---------------------------7----------------------7------------------------|
G|--------------------------7----------------------7-------------------------|
D|-------------------------7----------------------7--------------------------|
A|------------------------5----------------------5---------------------------|
E|---------------------------------------------------------------------------|
                          x3(let third ring out)

===============================================================================

<<<<<<<<<<<< = pickslide





Comments


Popular Goldfinger tabs & chords
Tony Hawk 4 Song Bass Tabs
Behind The Mask Chords
Superman 1 Chords
Question Drum Tabs
Happy Tabs
Happy 1 Tabs
Here In Your Bedroom Tabs
Question Tabs
Spankbank Tabs
Stalker 1 Tabs


Song lyrics



↑ Back to top | Tablatures and chords are parodies/interpretations of the original songs. You may use it for private study, scholarship, research or language learning purposes only
© 2014 AZChords.com Contact us | Privacy policy | DMCA | Add/correct tabs | Request tabs | Top 50 tabs