>
 >
Get Up 1

Get Up 1 Guitar Tabs

Goldfinger - Get Up 1 chords, tabs, tablatures, lyrics

Guitar lessons | Add/correct | Request | Top 50 tabs Artists:  A B C D E F G H I J K L M N O P Q R S T U V W X Y Z 0-9

Get Up 1 Guitar Tabs – Goldfinger

CD, Sheet music, Poster

Do you like Get Up 1? Share with your friends now
Bass TabsTabsTabs v2
Goldfinger - Get Up

i think this song is standard tuning but it might be half-step

intro
e-------------------------------------|
B-------------------------------------|
G-------------------------------------|
D-------------------------------------|
A-2----4/5-55-54-42-2----4/5-55-754---|
E--3-5---------------3-5--------------|

verse (clean) x5
e-22x-2-2-33x-3-3-3/55-5-5-55x-5-5----|
B-33x-3-3-33x-3-3-3/66-6-6-55x-5-5----|
G-44x-4-4-44x-4-4-4/77-7-7-66x-6-6----|
D-------------------------------------|
A-------------------------------------|
E-------------------------------------|

e-22x-2-2-33x-3-3-3/55-5-5------------|
B-33x-3-3-33x-3-3-3/66-6-6------------|
G-44x-4-4-44x-4-4-4/77-7-7------------|
D--------------------------7-7-7-7-7~-|
A--------------------------7-7-7-7-7~-|
E--------------------------5-5-5-5-5~-|

chorus x2
e-------------------------------------|
B-------------------------------------|
G-------------------------------------|
D-44444444----------77777777----------|
A-22222222-55555555-55555555-77777777-|
E----------33333333----------55555555-|
  ........ ........ ........ ........

solo
e-------------------------------------|
B-------------------------------------|
G-------------------------------------|
D-------------------------------------|
A-2----4/5-55-54-42-2----4/5-55-754---|
E--3-5---------------3-5--------------|

verse (clean) x3
e-22x-2-2-33x-3-3-3/55-5-5-55x-5-5----|
B-33x-3-3-33x-3-3-3/66-6-6-55x-5-5----|
G-44x-4-4-44x-4-4-4/77-7-7-66x-6-6----|
D-------------------------------------|
A-------------------------------------|
E-------------------------------------|

e-22x-2-2-33x-3-3-3/55-5-5------------|
B-33x-3-3-33x-3-3-3/66-6-6------------|
G-44x-4-4-44x-4-4-4/77-7-7------------|
D--------------------------7-7-7-7-7~-|
A--------------------------7-7-7-7-7~-|
E--------------------------5-5-5-5-5~-|

chorus x2
e-------------------------------------|
B-------------------------------------|
G-------------------------------------|
D-44444444----------77777777----------|
A-22222222-55555555-55555555-77777777-|
E----------33333333----------55555555-|

solo x2
e-------------------------------------|
B-------------------------------------|
G-------------------------------------|
D-------------------------------------|
A-2----4/5-55-54-42-2----4/5-55-754---|
E--3-5---------------3-5--------------|

e-22x-2-2-33x-3-3-3/55-5-5-55x-5-5----|
B-33x-3-3-33x-3-3-3/66-6-6-55x-5-5----|
G-44x-4-4-44x-4-4-4/77-7-7-66x-6-6----|
D-------------------------------------|
A-------------------------------------|
E-------------------------------------|

e-22x-2-2-33x-3-3-3/55-5-5------------|
B-33x-3-3-33x-3-3-3/66-6-6------------|
G-44x-4-4-44x-4-4-4/77-7-7------------|
D--------------------------77777777---|
A--------------------------77777777---|
E--------------------------55555555---|
                           ........

Bridge x2 (this part was the hardest to figure out)
e-------------------------------------|
B-------------------------------------|
G-4-4-4-4-7-7-7-7---------------------|
D-4-4-4-4-7-7-7-7-5-5-5-5-7-7-7-7-----|
A-2-2-2-2-5-5-5-5-5-5-5-5-7-7-7-7-----|
E-----------------3-3-3-3-5-5-5-5-----|

e-------------------------------------|
B-------------------------------------|
G---------7-7-------------------------|
D-4-44-44-7-7-77---------7-7----------|
A-2-22-22-5-5-55-5-55-55-7-7-7777-----|
E----------------3-33-33-5-5-5555-----|

chorus x2
e-22x-2-2-33x-3-3-3/55-5-5-55x-5-5----|
B-33x-3-3-33x-3-3-3/66-6-6-55x-5-5----|
G-44x-4-4-44x-4-4-4/77-7-7-66x-6-6----|
D-------------------------------------|
A-------------------------------------|
E-------------------------------------|

outro x2
e-------------------------------------|
B-------------------------------------|
G-4~~~~~~---------7~~~~~~~------------|
D-4~~~~~~-5~~~~~~-7~~~~~~~-7~~~~~~~---|
A-2~~~~~~-5~~~~~~-5~~~~~~~-7~~~~~~~---|
E---------3~~~~~~----------5~~~~~~~---|
I
I
e-22x-2-2-33x-3-3-3/55-5-5-55x-5-5----|
B-33x-3-3-33x-3-3-3/66-6-6-55x-5-5----|
G-44x-4-4-44x-4-4-4/77-7-7-66x-6-6----|
D-------------------------------------|
A-------------------------------------|
E-------------------------------------|


KEY:
/ = slide
x = mute/scrape
. = palm mute
~ = let ring

well thats the song i dont think its 100% but its close oh and if your recording or 
this with a band one guitar has the ska upstroke verses
in the background of the chorus

enjoy

--sam





Comments


Popular Goldfinger tabs & chords
Counting The Days 2 Bass Tabs
Forgiveness Bass Tabs
Forgiveness 1 Tabs
Free Me 1 Tabs
Kids Are Alright Tabs
Nothing To Prove Tabs
Radio 1 Tabs
The End Of The Day 1 Tabs
The Last Time Tabs
Here In Your Bedroom Ukulele


Song lyrics



↑ Back to top | Tablatures and chords are parodies/interpretations of the original songs. You may use it for private study, scholarship, research or language learning purposes only
© 2014 AZChords.com Contact us | Privacy policy | DMCA | Add/correct tabs | Request tabs | Top 50 tabs