>
 >
Get Up

Get Up Bass Tabs

Goldfinger - Get Up chords, tabs, tablatures, lyrics

Guitar lessons | Add/correct | Request | Top 50 tabs Artists:  A B C D E F G H I J K L M N O P Q R S T U V W X Y Z 0-9

Get Up Bass Tabs – Goldfinger

CD, Sheet music, Poster

Do you like Get Up? Share with your friends now
Bass TabsTabsTabs v2
Band: Goldfinger

Great Song
Comments and corrections are very welcome

Please rate

/ = slide up
\ = slide down

Intro (0:02)

G|------------------|
D|------------------| 
A|-4-----4-7777997--|
E|----4-----------7-|

Pre-verse (0:05)

G|----------------------------------|
D|----------------------------------| 
A|-4-4-7-4---4-7-4-7---------6-9-6--|
E|---------5---------4-5-7-7--------|

G|----------------------------------|
D|----------------------------------| 
A|-4---------4-7-4-----------6-9-6--|
E|---0-2-4-5-------0-2-4-5-7--------|


Verse (0:16)

G|----------------------------------|
D|----------------------------------| 
A|-4---------4-7-4-7---------6-9-6--|
E|---0-2-4-5---------4-5-7-7--------|

G|----------------------------------|
D|----------------------------------| 
A|-4---------4-7-4-----------6-9-6--|
E|---0-2-4-5-------0-2-4-5-7--------|


Pre-chorus (0:27)

G|----------------------------------|
D|-----6----------------------------| 
A|-4-7---7---4-7-4—7---------6-9-6--|
E|---------5---------4-5-7-7--------|

G|----------------------------------|
D|-----6------------------9-------9\| 
A|-4-7---7---4-7-4—7--------9-9-9---|
E|---------5---------4-5-7----------|

Chorus (0:38)

G|----------------------------------|
D|-----------------------------9-9--| 
A|-4---------4-7-4-7---------6------|
E|---0-2-4-5---------4-5-7-7--------|

G|------------------------------------|
D|------------------------------------| 
A|-4---------4-7-4-7---------6-9-6-4\-|
E|---0-2-4-5---------4-5-7-7----------|

Post chorus (0:52)

G|------------------|
D|------------------| 
A|-4-----4-7777997--|
E|----4-----------7-|


Bridge (Monkey see…) (0:55)

G|----------------------------------|
D|-------6---------2----------------| 
A|-4--47-------4-7—---------7\--7\--|  
E|---------5--5-------02-4----------|

G|----------------------------------|
D|-------6---------2------799999999-| 
A|-4--47-------4-7—-----------------|  
E|---------5--5-------02-4----------|

Pre-chorus (1:06)

G|----------------------------------|
D|-----6----------------------------| 
A|-4-7---7---4-7-4—7---------6-9-6--|
E|---------5---------4-5-7-7--------|

G|----------------------------------|
D|-----6------------------9-------9\| 
A|-4-7---7---4-7-4—7--------9-9-9---|
E|---------5---------4-5-7----------|

Chorus (1:18)

G|----------------------------------|
D|-----6----------------------------| 
A|-4-7---7---4-7-4-2-----0-2-0------|
E|---------5---------2-4-------4-2--|

G|----------------------------------|
D|-----6---7---------6-7-9-9-7-6----| 
A|-4-7---7---4-6-7-7-------------9--|
E|----------------------------------|

Bridge (1:28)

G|------------------|
D|------------------| 
A|-4-----4-7777997--| x4
E|----4-----------7-|


Bridge (1:39)

G|----------------------------------|
D|----------------------------------| 
A|-4---------4-7-4-----------6-9-6--|
E|---0-2-4-5-------0-2-4-5-7--------|

G|------------------------------------------|
D|------------------------------------------| 
A|-4---------4-7-4-7-----7------------------|
E|---0-2-4-5---------5-7---7-77777777777777-|

Bridge (1:53)

G|----------------------------------|
D|----------------------------------| 
A|-4-4-4-4-7-7-7-7---------77777777-|
E|-----------------5-5-5-5----------|

G|----------------------------------|
D|----------------------------------| 
A|---------4-4----------------6669--|
E|-2--2-22---------5--5-55-777------|


G|----------------------------------|
D|----------------------------------| 
A|-4-4-4-4-7-7-7-7------------------|
E|-----------------5-5-5-5-0-00000--|


G|--------------------------------------------6--8------|
D|------------------------------------6--7-9------------| 
A|---------4—4----------------6--7-9--------------------|
E|-2--2-22---------5--5-55-7-----------------------7\---|

Pause

Pre-Chorus (2:23)

G|----------------------------------|
D|-------------------------/9-7-6---| 
A|2/4-4-4-4---------7-7-7-7-------9-|
E|----------5-5-5-5-----------------|

Chorus (2:29)

G|----------------------------------|
D|----------------------------------| 
A|-4---------4-7-4-7----------------|
E|---0-2-4-5---------4-5-7-7-5-4-2--|

G|----------------------------------|
D|---2--------------------999999999-| 
A|-4---4-2---4-7-4-7----------------|
E|---------5---------4-5-7----------|

G|----------------------------------|
D|-----6-----------------------9-9--| 
A|-4-7---7---4-7-4-7---------6------|
E|---------5---------4-5-7-7--------|

G|--------------------------------------------------|
D|-----6-------------6-7-9-9--7--6------------------| 
A|-4-7---7---4-7-4-7---------------9--7--6----------|
E|---------5-------------------------------7\-------|

Ending

G|-----------------6\-|
D|--------------------| 
A|-4-----4-7777997----|
E|----4-----------7---|





Comments


Popular Goldfinger tabs & chords
99 Red Balloons 1 Bass Tabs
Fuck You And Your Cat Bass Tabs
Loneliest Place Bass Tabs
Wayne Gretzky Chords
99 Red Balloons 5 Tabs
Decisions Tabs
January Tabs
My Head Tabs
Someone Else Tabs
Free Kevin Kjonaas 2 Ukulele


Song lyrics



↑ Back to top | Tablatures and chords are parodies/interpretations of the original songs. You may use it for private study, scholarship, research or language learning purposes only
© 2014 AZChords.com Contact us | Privacy policy | DMCA | Add/correct tabs | Request tabs | Top 50 tabs