>
 >
Ftn

Ftn Guitar Tabs

Goldfinger - Ftn chords, tabs, tablatures, lyrics

Guitar lessons | Add/correct | Request | Top 50 tabs Artists:  A B C D E F G H I J K L M N O P Q R S T U V W X Y Z 0-9

Ftn Guitar Tabs – Goldfinger

CD, Sheet music, Poster

Do you like Ftn? Share with your friends now
Tabs
-------------------------------------------------------------------------------
-------------------------------------------------------------------------------
Tuning: Standard

Sick song, but I couldnt find a tab for it anywhere. So here it is. 
The chorus has a fast and kind of awkward strumming pattern, so just listen
 to the song and you can easily figure it out. 

INTRO (arpeggio down-strokes)
F***,   f***...
e|-7-------4-------7-------2-------7-------4-------7--|
B|-7-------4-------7-------2-------7-------4-------7--|
G|-8-------4-------8-------3-------8-------4-------8--|
D|-9-------6-------9-------4-------9-------6-------9--|
A|-9-------6-------9-------4-------9-------6-------9--|
E|-7-------4-------7-------2-------7-------4-------7--|

ye-haw
e|--------------------|
B|--------------------|
G|--------------------|
D|-4-4---4-4-4---4-4--|
A|-4-4---4-4-4---4-4--|
E|-2-2---2-2-2---2-2--|

VERSE
F. Ted Nugent, Hes a...
e|--------------------------------------|
B|--------------------------------------|
G|--------------------------------------|
D|-99999999-88888888-66666666-44444444--|
A|-99999999-99999999-66666666-44444444--|
E|-77777777-66666666-44444444-22222222--| x2

CHORUS
Hes a d***,...
e|--------------------------------------------------|
B|--------------------------------------------------|
G|--------------------------------------------------|
D|-9999999999999--6666666666666--9999999999999--4---|
A|-9999999999999--7777777777777--9999999999999--4---|
E|-7777777777777--4444444444444--7777777777777--2---|
                                                Let last chord ring out
VERSE
F. Ted Nugent, and f. the NRA...
e|--------------------------------------|
B|--------------------------------------|
G|--------------------------------------|
D|-99999999-88888888-66666666-44444444--|
A|-99999999-99999999-66666666-44444444--|
E|-77777777-66666666-44444444-22222222--| x2

CHORUS
Hes a d***,...
e|--------------------------------------------------|
B|--------------------------------------------------|
G|--------------------------------------------------|
D|-9999999999999--6666666666666--9999999999999--4---|
A|-9999999999999--7777777777777--9999999999999--4---|
E|-7777777777777--4444444444444--7777777777777--2---|
                                                Let last chord ring out

BRIDGE
He thinks hell get the girls...
    TP    TP    TP    TP  
e|---7-----6-----7-----9--|
B|------------------------|
G|------------------------|
D|------------------------|
A|------------------------|
E|------------------------|

VERSE
Jennifer Lopez, fur wearing...   
e|--------------------------------------------------------|
B|--------------------------------------------------------|
G|-888888--666666--444444--333333--888888--666666--8------|
D|-xxxxxx--xxxxxx--xxxxxx--xxxxxx--xxxxxx--xxxxxx--9--4---|
A|-666666--444444--222222--111111--666666--444444--6--4---|
E|----------------------------------------------------2---|

CHORUS
Shes a b., f. her...
e|--------------------------------------------------------------|
B|--------------------------------------------------------------|
G|--------------------------------------------------------------|
D|-9999999999999--6666666666666--9999999999999--4444444444444---|
A|-9999999999999--7777777777777--9999999999999--4444444444444---|
E|-7777777777777--4444444444444--7777777777777--2222222222222---|

Shes a b., f. her...
e|---------------------------------------|
B|---------------------------------------|
G|-8-8--8-8--13-13--13-13--8-8--8-8------|
D|-x-x--x-x--x--x---x--x---x-x--x-x--4---|
A|-6-6--6-6--11-11--11-11--6-6--6-6--4---|
E|-----------------------------------2---|
                                     Let last chord ring out

OUTRO
F. Ted Nugent
e|-----------------|
B|-----------------|
G|-----------------|
D|-2---2---2---9---|
A|-2---2---2---9---|
E|-0---0---0---7---|
               Let last chord ring             

Good Song, Good band. PLEASE RATE. 


| TP Tremolo Picking
| /  slide up
| \  slide down
| h  hammer-on
| p  pull-off
| ~  vibrato
| +  harmonic
| x  Mute note
===============================================================================





Comments


Popular Goldfinger tabs & chords
Faith Bass Tabs
Fuck You And Your Cat Bass Tabs
Is She Really Going Out With Him? 1 Bass Tabs
Pictures Bass Tabs
Stalker Bass Tabs
Without Me Chords
Forgiveness 1 Tabs
Free Kevin Kjonaas Ukulele
Fuck You And Your Cat Ukulele
Stay Ukulele


Song lyrics



↑ Back to top | Tablatures and chords are parodies/interpretations of the original songs. You may use it for private study, scholarship, research or language learning purposes only
© 2014 AZChords.com Contact us | Privacy policy | DMCA | Add/correct tabs | Request tabs | Top 50 tabs