» » »

Donut Dan Tabs (ver.1)

Artists:  A B C D E F G H I J K L M N O P Q R S T U V W X Y Z # 

Donut Dan Tabs (ver.1)

Goldfinger
Rating:
0/5 (0 votes)

Hard to play? Try these video lessons and learn fast.
                Written by John Feldmann

I have a bunch of live videos of Goldfinger and I'm sure this 
is about as close as it gets to the actual tab.

This song is one of the easier ones to play.

*-Repeat many times

VERSE 1 (Distortion)
                        (Both Guitars)
         Chords Used (Play them in the order given):
     A5  D5  A5  A5  D5  E5  A5  D5  A5  D5  E5    A5  D5
E |---------------------------------------------|---------| 
B |---------------------------------------------|---------| 
G |------7-----------7---9-------7-------7---9--|------7--| 
D |--7---7---7---7---7---9---7---7---7---7---9--|--7---7--| 
A |--7---5*--7---7---5*--7*--7---5*--7---5*--7*-|--7---5--| 
E |--5*------5*--5*----------5*------5*---------|--5------|

VERSE 2 (No guitar)

VERSE 3 (Clean, strummed quickly)
                         
                         (Both Guitars)
         Chords Used (Play them in the order given):
     B   E   B   B   E   F#   B   E   B   E   F#     B   E
E |--7---7---7---7---7----9---7---7---7---7----9--|--7---7--| 
B |--7---9---7---7---9---11---7---9---7---9---11--|--7---9--| 
G |--8---9---8---8---9---11---8---9---8---9---11--|--8---9--| 
D |--9*--9*--9*--9*--9*--11*--9*--9*--9*--9*--11*-|--9---9--| 
A |-----------------------------------------------|---------| 
E |-----------------------------------------------|---------| 

OUTRO (Distortion)
    
     B5  B5  C#5 
E |-------------| 
B |-------------| 
G |--4---4---6--| 
D |--4---4---6--| 
A |--2---2---4--| 
E |-------------|
            
Hard to play? Try these video lessons and learn fast. | Correct




comments powered by Disqus
↑ Back to top | Tablatures and chords are parodies/interpretations of the original songs. You may use it for private study, scholarship, research or language learning purposes only