>
 >
Don't Say Goodbye

Don't Say Goodbye Guitar Tabs

Goldfinger - Don't Say Goodbye chords, tabs, tablatures, lyrics

Guitar lessons | Add/correct | Request | Top 50 tabs Artists:  A B C D E F G H I J K L M N O P Q R S T U V W X Y Z 0-9

Don't Say Goodbye Guitar Tabs – Goldfinger

CD, Sheet music, Poster

Do you like Don't Say Goodbye? Share with your friends now
Tabs
-----------------------------------------------------------------------------
                             Goldfinger - Don't Say Goodbye
-----------------------------------------------------------------------------

work out what drop D was so never played this song unbtil recently
The Other person did all the lead except one bit and i did most 
of the Rhythm bits in this. 

Tuning:Drop D

Intro
Rhythm
e|---------------------------------------------------------------|
B|---------------------------------------------------------------|
G|-7---5--------7---5------7---5---------------------------------|
D|-7---5---5-3--7---5--5---7---5--8-8--8-8-8--8-8-8--8-8-8--8-7--|
A|-5---3---5-3--5---3--5---5---3--8-8--8-8-8--8-8-8--8-8-8--8-7--|
E|---------5-3---------5----------8-8--8-8-8--8-8-8--8-8-8--8-7--|

Lead
e|------------------------|
B|------------------------|
G|------------5----4^5(4)-|
D|-----7----5------------5|
A|-5-8----3---------------|
E|--------------3---------|

e|--------------------------------------------------|
B|--------------------------------------------------|
G|-----------5-------------------------------6^7(6)-|
D|-----7---5---8-8--8-8-8--8-8-8--8-8-8--8-7-------7|
A|-5-8---3-----8-8--8-8-8--8-8-8--8-8-8--8-7--------|
E|-------------8-8--8-8-8--8-8-8--8-8-8--8-7--------|

Verse
"I know the way that I have picked upon at you..."
e|---------|
B|---------|
G|-7---10-9|
D|-7-7-10-9|
A|-5-7--8-7|
E|---7-----|
repeat 2x

Pre Chorus
Rhythm
e|-------------------------------------------------------------|
B|-------------------------------------------------------------|
G|-------------------------------------------------------------|
D|-------------------------------------------------------------|
A|-3-5-7-5-3--3-3-x--5-5-x--7-7--7-7-7--7-7-7--7-7-7--7-7-7-7-7|
E|-3-5-7-5-3--3-3-x--5-5-x--7-7--7-7-7--7-7-7--7-7-7--7-7-7-7-7|

Lead
e|--------------------------------------------|
B|--------------------------------------------|
G|-10-12-14-12-10-10-12-----------------------|
D|-10-12-14-12-10-10-12-7-7--7-7-7--7-7-7--7-5|
A|--8-10-12-10--8--8-10-7-7--7-7-7--7-7-7--7-5|
E|----------------------7-7--7-7-7--7-7-7--7-5|

Chorus
Rhythm 
e|------------------|
B|------------------|
G|-7-5---7-5--------|
D|-7-5-5-7-5-8------|
A|-5-3-5-5-3-8------|
E|-----5-----8------|

Lead
e|------------------------|
B|------------------------|
G|------------5----4^5(4)-|
D|-----7----5------------5|
A|-5-8----3---------------|
E|--------------3---------|

e|---------------|
B|---------------|
G|------------5--|
D|-----7----5---7|
A|-5-8----3-----7|
E|--------------7|

for the 2nd verse the guitarist just plucks one note, 
Then Plays Pre Chorus

Rhythm
e|--------------|
B|--------------|
G|--------------|
D|-3-5-7-8-9----|
A|-3-5-7-8-9----|
E|-3-5-7-8-9----|

Lead
e|--------------|
B|--------------|
G|-5-7-9-10-11--|
D|-x-x-x-x--x---|
A|-3-5-7-8--9---|
E|--------------|

Pre Bridge
e|-----------------|
B|-----------------|
G|-----------------|
D|-6-8-6-8-6-8-10--|
A|-6-8-6-8-6-8-10--|
E|-6-8-6-8-6-8-10--|

Bridge (clean):
e|-------------------------------|
B|-14----12------14----14----15--|
G|----14---12------14----14------|
D|-------------------------------|
A|-------------------------------|
E|-------------------------------|

Then turn on distortion and play:
e|---------------------------------------------|
B|---------------------------------------------|
G|---------------------------------------------|
D|---------------------------------------------|
A|-7-11-9-4-7-5-4-2-0-2--7-11-12-11-7-5-4-2-0-2|
E|-7-11-9-4-7-5-4-2-0-2--7-11-12-11-7-5-4-2-0-2|

e|---------------------------------------------|
B|---------------------------------------------|
G|---------------------------------------------|
D|-7-11-9-4-7-5-4-2-0-2--7-11-12-11-7-5-4-2-0-2|
A|-x--x-x-x-x-x-x-x-x-x--x--x--x--x-x-x-x-x-x-x|
E|-7-11-9-4-7-5-4-2-0-2--7-11-12-11-7-5-4-2-0-2|

e|------------------|
B|------------------|
G|------------------|
D|------------------|
A|-7-7-7-7-7-7-7-7-7|
E|-7-7-7-7-7-7-7-7-7|

Chorus 3 (a whole step lower)
Rhythm
e|------------------------------------------|
B|------------------------------------------|
G|--5-3---5-3-------5-3---5-3---------------|
D|--5-3-3-5-3-6-6-3-5-3-3-5-3-3-------------|
A|--3-1-3-3-1-6-6-3-3-1-3-3-1-3-------------|
E|------3-----6-6-3-----3-----3-------------|

Lead
e|------------------------------------------|
B|------------------------------------------|
G|-----------3---2^3(2)------------3--------|
D|-----5---3-----------3-----5---3----------|
A|-3-6---1---------------3-6---1-----6-6-6-3|
E|-------------3---------------------6-6-6-3|

e|---------------------------------------------|
B|---------------------------------------------|
G|-----------3---2^3(2)-------------3---2^3(2)-|
D|-----5---3-----------3------5---3-----------3|
A|-3-6---1----------------3-6---1--------------|
E|-------------3----------------------3--------|

Outro
e|------------------|
B|------------------|
G|------------------|
D|------------------|
A|-4-6-4-6-4-6-4-6-8|
E|-4-6-4-6-4-6-4-6-8|



Key
| /  slide up
| \  slide down
| h  hammer-on
| p  pull-off
| ~  vibrato
| +  harmonic
| x  Mute note
| ^  Palm mute
| *  Let ring 
=============================================================================





Comments


Popular Goldfinger tabs & chords
Answers 1 Bass Tabs
Fuck You And Your Cat Chords
99 Red Balloons 6 Tabs
End Of The Day (Intro) Tabs
Happy 1 Tabs
Just Like Heaven 1 Tabs
Tell Me 2 Tabs
The Innocent 1 Tabs
Fuck You And Your Cat Ukulele
Spokesman Ukulele


Song lyrics



↑ Back to top | Tablatures and chords are parodies/interpretations of the original songs. You may use it for private study, scholarship, research or language learning purposes only
© 2014 AZChords.com Contact us | Privacy policy | DMCA | Add/correct tabs | Request tabs | Top 50 tabs