>
 >
Decision

Decision Bass Tabs

Goldfinger - Decision chords, tabs, tablatures, lyrics

Guitar lessons | Add/correct | Request | Top 50 tabs Artists:  A B C D E F G H I J K L M N O P Q R S T U V W X Y Z 0-9

Decision Bass Tabs – Goldfinger

CD, Sheet music, Poster

Do you like Decision? Share with your friends now
Bass TabsTabsTabs v2
----------------------------------------------------------------------------
----------------------------------------------------------------------------


Tuning: standard

Intro/Verse:
G|--------------------------------------------------------------------------|
D|--------------------------------------------------------------------------|
A|-3333--------------------3333-------------------3333----------------------|
E|------5555-3333-1111----------5555-3333-1111---------5555-3333-1111-------|

G|--------------------------------------------------------------------------|
D|--------------------------------------------------------------------------|
A|-33-R---------------------------------------------------------------------|
E|-----55-R-33-R-11-R-------------------------------------------------------|


Prechorus:
G|--------------------------------------------------------------------------|
D|--------------------------------------------------------------------------|
A|-3-3-3-3--------------------------33333333333333--------------------------|
E|---------5-5-5-5-3-3-3-3-1-1-1-1------------------------------------------|
 "Somethin came in between us...."

Chorus:
G|--------------------------------------------------------------------------|
D|--------------------------------------------------------------------------|
A|-33-------------33-------------33-----------------------------------------|
E|----33-55-11------33-55-11--------33-55-11--------------------------------|

Post-Chorus:
G|--------------------------------------------------------------------------|
D|--------------------------------------------------------------------------|
A|--------------------------------------------------------------------------|
E|----5-3-1-1111-----5-3-1~-------------------------------------------------|
   "That I had been the one..."


Bridge:
G|--------------------------------------------------------------------------|
D|--------------------------------------------------------------------------|
A|-------------33-22-00-----------------------------------------------------|
E|-00000-22222------------11111-33333---------------------------------------|
"Now I think I'm going crazy..."

G|--------------------------------------------------------------------------|
D|--------------------------------------------------------------------------|
A|-33-R----------------33---------------------------------------------------|
E|-----55-R-33-R-11-R-----33-55-11------------------------------------------|


The bass plays the chorus when the guitar solos.


Part After the Solo:
G|--------------------------------------------------------------------------|
D|--------------------------------------------------------------------------|
A|--------------------------------------------------------------------------|
E|-3333-5555-3333-1111---33333333333----------------------------------------|
 "When you look in the mirror..."


When the guitar is hitting the high notes at the end, keep playing the post-Chorus:
G|--------------------------------------------------------------------------|
D|--------------------------------------------------------------------------|
A|--------------------------------------------------------------------------|
E|-5-3-1-1111--5-3-1~-------------------------------------------------------|

That's it! pretty easy once you get the order down, good luck

| R rest
| /  slide up
| \  slide down
| h  hammer-on
| p  pull-off
| ~  vibrato
| +  harmonic
| x  Mute note
============================================================================





Comments


Popular Goldfinger tabs & chords
99 Red Balloons 1 Bass Tabs
Just Like Heaven 2 Bass Tabs
Minds Eye Bass Tabs
Spokesman 2 Bass Tabs
Superman Bass Tabs
Forgiveness 1 Tabs
Spokesman Tabs
Superman Tabs
War Tabs
Mable Ukulele


Song lyrics



↑ Back to top | Tablatures and chords are parodies/interpretations of the original songs. You may use it for private study, scholarship, research or language learning purposes only
© 2014 AZChords.com Contact us | Privacy policy | DMCA | Add/correct tabs | Request tabs | Top 50 tabs