>
 >
Damaged

Damaged Guitar Tabs

Goldfinger - Damaged chords, tabs, tablatures, lyrics

Guitar lessons | Add/correct | Request | Top 50 tabs Artists:  A B C D E F G H I J K L M N O P Q R S T U V W X Y Z 0-9

Damaged Guitar Tabs – Goldfinger

CD, Sheet music, Poster

Do you like Damaged? Share with your friends now
Bass TabsChordsTabsUkulele
Damaged by Goldfinger (Only Rhythm Guitar, though)
I think it's correct...

Intro
e|-7-8-5-7-3-5-2-3-2-0---7-8-5-7-3-5-7-5-3-2-0--|
B|----------------------------------------------|
G|----------------------------------------------|
D|----------------------------------------------|
A|----------------------------------------------|
E|----------------------------------------------|

Verse pt.1
e|---------------------------------------------------|
B|---------------------------------------------------|
G|-4------5--------------------5---------------------|
D|-4-(X6)-5-(X6)-9------2------5-(X6)-9------2-------|
A|-2------3------9-(X6)-2-(X6)-3------9-(6X)-2-(X12)-|
E|---------------7------0-------------7------0-------|

Verse pt.2
e|--------------------------------|
B|--------------------------------|
G|--------------------------------|
D|-----5--------9-------9\--------|
A|-----5-(X8)---9-(X8)--9\--------|
E|-----3--------7-------7\--------|

Chorus
e|----------------------------------------------|
B|----------------------------------------------|
G|-7--------------------------------------------|
D|-7-(X12)-7-------9-------5------7-------------|
A|-5-------7-(X12)-9-(X12)-5-(X6)-7-(X8)--------|
E|---------5-------7-------3------5-------------|

Intro X1
Verse pt.1 X2
Verse pt.2 X1
Intro X1
Verse pt.1 X2
Verse pt.2 X1
Chorus X2
Intro X2
Verse pt.2 X1
Chorus X4
Verse pt.1 X1 But with E-0 A-2 D-2 chord played only once





Comments


Popular Goldfinger tabs & chords
Anxiety Bass Tabs
Fuck You And Your Cat 1 Bass Tabs
My Head Drum Tabs
Bro 1 Tabs
Carlita 1 Tabs
Going Home 1 Tabs
Superman Tabs
The Innocent 2 Tabs
Damaged Ukulele
Free Kevin Kjonaas Ukulele


Song lyrics



↑ Back to top | Tablatures and chords are parodies/interpretations of the original songs. You may use it for private study, scholarship, research or language learning purposes only
© 2014 AZChords.com Contact us | Privacy policy | DMCA | Add/correct tabs | Request tabs | Top 50 tabs