>
 >
Dad

Dad Guitar Tabs

Goldfinger - Dad chords, tabs, tablatures, lyrics

Guitar lessons | Add/correct | Request | Top 50 tabs Artists:  A B C D E F G H I J K L M N O P Q R S T U V W X Y Z 0-9

Dad Guitar Tabs – Goldfinger

CD, Sheet music, Poster

Do you like Dad? Share with your friends now
ChordsTabsUkulele



VERSE 1

|-------------------------------------------------------------
|-------------------------------------------------------------
|-------------------------------------------------------------
|------9-----9---9------9------9---9------6-----6---6---------
|--7-7---7-7---7----7-7---7-7----7----4-4---4-4---4-----------
|-------------------------------------------------------------
   * * * * * * * *  * * * * *  * * *  * * * * * * * *
|-------------------------------------------------------------
|-------------------------------------------------------------
|-------------------------------------------------------------
|------6-----6---6------7-----7---7---------------------------
|--4-4---4-4---4----5-5---5-5---5-------7-----7---7-----------
|-----------------------------------5-5---5-5---5-------------
   * * * * * * * *  * * * * * * * * * * * * * * * *
|-------------------------------------------------------------
|-------------------------------------------------------------
|-------------------------------------------------------------
|------9-----9---9------9------9---9--------------------------
|--7-7---7-7---7----7-7---7-7----7----------------------------
|-------------------------------------------------------------
   * * * * * * * *  * * * * *  * * *
|-------------------------------------------------------------
|-------------------------------------------------------------
|-------------------------------------------------------------
|------9-----9---9------9------9---9------6-----6---6---------
|--7-7---7-7---7----7-7---7-7----7----4-4---4-4---4-----------
|-------------------------------------------------------------
|  * * * * * * * *  * * * * *  * * *  * * * * * * * *
|-------------------------------------------------------------
|-------------------------------------------------------------
|------9-----8---8------9------8---8------9-----8---8---------
|------9-----9---9------9------9---9------9-----9---9---------
|-------------------------------------------------------------
|-------------------------------------------------------------
        *     *   *     *     *   *     *     *   *



|-------------------------------------------------------------
|-------------------------------------------------------------
|-------------------------------------------------------------
|------6-----6---6------7-----7---7---------------------------
|--4-4---4-4---4----5-5---5-5---5-------7-----7---7-----------
|-----------------------------------5-5---5-5---5-------------
|  * * * * * * * *  * * * * * * * * * * * * * * * *
|-------------------------------------------------------------
|-------------------------------------------------------------
|------9-----8---8------9-----9---9-----6-----6---6-----------
|------9-----9---9------9-----9---9-----7-----7---7-----------
|-------------------------------------------------------------
|-------------------------------------------------------------
       *     *   *      *     *   *     *     *   *



|-------------------------------------------------------------
|-------------------------------------------------------------
|-------------------------------------------------------------
|------9-----9---9------9------9---9--------------------------
|--7-7---7-7---7----7-7---7-7----7----------------------------
|-------------------------------------------------------------
|  * * * * * * * *  * * * * *  * * *
|-------------------------------------------------------------
|-------------------------------------------------------------
|------9-----8---8------9------8---8--------------------------
|------9-----9---9------9------9---9--------------------------
|-------------------------------------------------------------
|-------------------------------------------------------------
       *     *   *      *      *   *

CHORUS 1

  Donít go away again.....
|-------------------------------------------------------------
|-------------------------------------------------------------
|--6-6-6-6-6-6-6-6--7-7-7-7-7-7-7-7--9-9-9-9-9-9-9-9-9-9-9-9-9
|--6-6-6-6-6-6-6-6--7-7-7-7-7-7-7-7--9-9-9-9-9-9-9-9-9-9-9-9-9
|--4-4-4-4-4-4-4-4--5-5-5-5-5-5-5-5--7-7-7-7-7-7-7-7-7-7-7-7-7
|-------------------------------------------------------------
   * * * * * * * *  * * * * * * * *  * * * * * * * * * * * * *


|-------------------------------------------------------------
|-------------------------------------------------------------
|--9-9-9--6-6-6-6-6-6-6-6--7-7-7-7-7-7-7-7--9-9-9-9-9-9-9-9-9-
|--9-9-9--6-6-6-6-6-6-6-6--7-7-7-7-7-7-7-7--9-9-9-9-9-9-9-9-9-
|--7-7-7--4-4-4-4-4-4-4-4--5-5-5-5-5-5-5-5--7-7-7-7-7-7-7-7-7-
|-------------------------------------------------------------
   * * *  * * * * * * * *  * * * * * * * *  * * * * * * * * *

|-------------------------------------------------------------
|-------------------------------------------------------------
|--9-9-9-9-9-9-9-9--------------------------------------------
|--9-9-9-9-9-9-9-9--------------------------------------------
|--7-7-7-7-7-7-7-7--------------------------------------------
|-------------------------------------------------------------
   * * * * * * * *

|-------------------------------------------------------------
|-------------------------------------------------------------
|--6-6-6-6-6-6---------------------7-7-7-7--------------------
|--6-6-6-6-6-6-2-2-2-2-2-2-2-2-2-2-7-7-7-7-7-7-7-7-7-7-7-7----
|--4-4-4-4-4-4-2-2-2-2-2-2-2-2-2-2-5-5-5-5-7-7-7-7-7-7-7-7----
|--------------0-0-0-0-0-0-0-0-0-0---------5-5-5-5-5-5-5-5----
   * * * * * * * * * * * * * * * * * * * * * * * * * * * * 

|-------------------------------------------------------------
|-------------------------------------------------------------
|-------------------------------------------------------------
|------7-----7---7------7------7---7--------------------------
|--5-5---5-5---5----5-5---5-5----5----------------------------
|-------------------------------------------------------------
   * * * * * * * *  * * * * *  * * *


|-------------------------------------------------------------
|-------------------------------------------------------------
|-------------------------------------------------------------
|------7-----7---7------7------7---7--------------------------
|--5-5---5-5---5----5-5---5-5----5----------------------------
|-------------------------------------------------------------
   * * * * * * * *  * * * * *  * * *




VERSE 2

heavy distortion

|-------------------------------------------------------------
|-------------------------------------------------------------
|-------------------------------------------------------------
|------9-----9---9------9------9---9------6-----6---6---------
|--7-7---7-7---7----7-7---7-7----7----4-4---4-4---4-----------
|-------------------------------------------------------------
   * * * * * * * *  * * * * *  * * *  * * * * * * * *

|-------------------------------------------------------------
|-------------------------------------------------------------
|--------------------7-7-7-7-----------9-9-9-9-9-9-9-9--------
|------6-----6---6---7-7-7-7--7-7-7-7--9-9-9-9-9-9-9-9--------
|--4-4---4-4---4-----5-5-5-5--7-7-7-7--7-7-7-7-7-7-7-7--------
|-----------------------------5-5-5-5-------------------------
   * * * * * * * *
|-------------------------------------------------------------
|-------------------------------------------------------------
|-------------------------------------------------------------
|------9-----9---9------9------9---9------6-----6---6---------
|--7-7---7-7---7----7-7---7-7----7----4-4---4-4---4-----------
|-------------------------------------------------------------
   * * * * * * * *  * * * * *  * * *  * * * * * * * *

|-------------------------------------------------------------
|-------------------------------------------------------------
|--------------------7-7-7-7-----------9-9-9-9----------------
|------6-----6---6---7-7-7-7--7-7-7-7--9-9-9-9--(pick slide)--
|--4-4---4-4---4-----5-5-5-5--7-7-7-7--7-7-7-7----------------
|-----------------------------5-5-5-5-------------------------
   * * * * * * * *



CHORUS 2

	donít go away again...
|-------------------------------------------------------------
|-------------------------------------------------------------
|--6-6-6-6-6-6-6-6--7-7-7-7-7-7-7-7--9-9-9-9-9-9-9-9-9-9-9-9-9
|--6-6-6-6-6-6-6-6--7-7-7-7-7-7-7-7--9-9-9-9-9-9-9-9-9-9-9-9-9
|--4-4-4-4-4-4-4-4--5-5-5-5-5-5-5-5--7-7-7-7-7-7-7-7-7-7-7-7-7
|-------------------------------------------------------------
                                                     * *   * *

|-------------------------------------------------------------
|-------------------------------------------------------------
|--9--6-6-6-6-6-6-6-6--7-7-7-7-7-7-7-7--9-9-9-9-9-9-9-9-9-----
|--9--6-6-6-6-6-6-6-6--7-7-7-7-7-7-7-7--9-9-9-9-9-9-9-9-9-----
|--7--4-4-4-4-4-4-4-4--5-5-5-5-5-5-5-5--7-7-7-7-7-7-7-7-7-----
|-------------------------------------------------------------
  

|-------------------------------------------------------------
|-------------------------------------------------------------
|--9-9-9-9-9-9-9-9--------------------------------------------
|--9-9-9-9-9-9-9-9--------------------------------------------
|--7-7-7-7-7-7-7-7--------------------------------------------
|-------------------------------------------------------------
  
|-------------------------------------------------------------
|-------------------------------------------------------------
|--9--8--7--6--5--4---6--6-----14/13--14--13--7-7-7-7-7-7-----
|--9--8--7--6--5--4---6--6--2---*--*---*---*--7-7-7-7-7-7-----
|--7--6--5--4--3--2---4--4--2--12/11--12--11--5-5-5-5-5-5-----
|---------------------------0---------------------------------
   *  *  *  *  *  *


|-------------------------------------------------------------
|-------------------------------------------------------------
|--7-7-7-7-7-7-7-7-7-7--9-9-9-8-8-8-7-7-7-6-6-6--5--4---------
|--7-7-7-7-7-7-7-7-7-7--9-9-9-8-8-8-7-7-7-6-6-6--5--4---------
|--5-5-5-5-5-5-5-5-5-5--7-7-7-6-6-6-5-5-5-4-4-4--3--2---------
|-------------------------------------------------------------




VERSE 3

|-------------------------------------------------------------
|-------------------------------------------------------------
|-------------------------------------------------------------
|------9-----9---9------9------9---9------6-----6---6---------
|--7-7---7-7---7----7-7---7-7----7----4-4---4-4---4-----------
|-------------------------------------------------------------
|  * * * * * * * *  * * * * *  * * *  * * * * * * * *
|-------------------------------------------------------------
|-------------------------------------------------------------
|------9-----8---8------9------8---8------9-----8---8---------
|------9-----9---9------9------9---9------9-----9---9---------
|-------------------------------------------------------------
|-------------------------------------------------------------
       *     *   *      *      *   *      *     *   *

|-------------------------------------------------------------
|-------------------------------------------------------------
|--------------------7-7-7-7-----------9-9-9-9-9-9-9-9--------
|------6-----6---6---7-7-7-7--7-7-7-7--9-9-9-9-9-9-9-9--------
|--4-4---4-4---4-----5-5-5-5--7-7-7-7--7-7-7-7-7-7-7-7--------
|-----------------------------5-5-5-5-------------------------
|  * * * * * * * *
|-------------------------------------------------------------
|-------------------------------------------------------------
|------9-----8---8--------------------------------------------
|------9-----9---9--------------------------------------------
|-------------------------------------------------------------
|-------------------------------------------------------------
       *     *   *      

|-------------------------------------------------------------
|-------------------------------------------------------------
|-------------------------------------------------------------
|------9-----9---9------9------9---9------6-----6---6---------
|--7-7---7-7---7----7-7---7-7----7----4-4---4-4---4-----------
|-------------------------------------------------------------
   * * * * * * * *  * * * * *  * * *  * * * * * * * *

|-------------------------------------------------------------
|-------------------------------------------------------------
|--------------------7-7-7-7-----------9-9-9-9-9-9-9-9--------
|------6-----6---6---7-7-7-7--7-7-7-7--9-9-9-9-9-9-9-9--------
|--4-4---4-4---4-----5-5-5-5--7-7-7-7--7-7-7-7-7-7-7-7--------
|-----------------------------5-5-5-5-------------------------
   * * * * * * * *

CHORUS 3

   donít go away again...

|-------------------------------------------------------------
|-------------------------------------------------------------
|--6-6-6-6-6-6-6-6--7-7-7-7-7-7-7-7--9-9-9-9-9-9-9-9-9-9-9-9-9
|--6-6-6-6-6-6-6-6--7-7-7-7-7-7-7-7--9-9-9-9-9-9-9-9-9-9-9-9-9
|--4-4-4-4-4-4-4-4--5-5-5-5-5-5-5-5--7-7-7-7-7-7-7-7-7-7-7-7-7
|-------------------------------------------------------------
   

|-------------------------------------------------------------
|-------------------------------------------------------------
|--9-9-9--6-6-6-6-6-6-6-6--7-7-7-7-7-7-7-7--9-9-9-9-9-9-9-9-9-
|--9-9-9--6-6-6-6-6-6-6-6--7-7-7-7-7-7-7-7--9-9-9-9-9-9-9-9-9-
|--7-7-7--4-4-4-4-4-4-4-4--5-5-5-5-5-5-5-5--7-7-7-7-7-7-7-7-7-
|-------------------------------------------------------------
  

|-------------------------------------------------------------
|-------------------------------------------------------------
|--9-9-9-9-9-9-9-9--------------------------------------------
|--9-9-9-9-9-9-9-9--------------------------------------------
|--7-7-7-7-7-7-7-7--------------------------------------------
|-------------------------------------------------------------
  

|-------------------------------------------------------------
|-------------------------------------------------------------
|--9--8--7--6--5--4---6--6-----14/13--14--13--7-7-7-7-7-7-----
|--9--8--7--6--5--4---6--6--2---*--*---*---*--7-7-7-7-7-7-----
|--7--6--5--4--3--2---4--4--2--12/11--12--11--5-5-5-5-5-5-----
|---------------------------0---------------------------------
   *  *  *  *  *  *


|-------------------------------------------------------------
|-------------------------------------------------------------
|--7-7-7-7-7-7-7-7-7-7--9-9-9-8-8-8-7-7-7-6-6-6--5--4---------
|--7-7-7-7-7-7-7-7-7-7--9-9-9-8-8-8-7-7-7-6-6-6--5--4---------
|--5-5-5-5-5-5-5-5-5-5--7-7-7-6-6-6-5-5-5-4-4-4--3--2---------
|-------------------------------------------------------------


|-------------------------------------------------------------
|-------------------------------------------------------------
|-----------------------------------------3-------------------
|--2-2--2-2--2-2--2-2--2-2--2-2--2-2--2-2-3-------------------
|--2-2--2-2--2-2--2-2--2-2--2-2--2-2--2-2-1-------------------
|--0-0--0-0--0-0--0-0--0-0--0-0--0-0--0-0---------------------
   * *  * *  * *  * *  * *  * *  * *  * *


|-------------------------------------------------------------
|-------------------------------------------------------------
|-----------------------------------------3-------------------
|--2-2--2-2--2-2--2-2--2-2--2-2--2-2--2-2-3-------------------
|--2-2--2-2--2-2--2-2--2-2--2-2--2-2--2-2-1-------------------
|--0-0--0-0--0-0--0-0--0-0--0-0--0-0--0-0---------------------
   * *  * *  * *  * *  * *  * *  * *  * *







|-------------------------------------------------------------
|-------------------------------------------------------------
|-------------------------------------------------------------
|------------------5-5-5-5-4-4-4-4---------5-5-5-5-4-4-4-4-5-5
|--7-7-7-7-7-7-7-7-----------------5-5-5-5--------------------
|-------------------------------------------------------------
   * * * * * * * * * * * * * * * * * * * * * * * * * * * * * *

|------------    ---------------------------------------------
|------------    ---------------------------------------------
|------------ x2 --9/-----------------------------------------
|--5-5-------    --9/-----------------------------------------
|------------    --7/-----------------------------------------
|------------    ---------------------------------------------
   * *

I see the older that I get...

(First time played by bass)

I see the older that I get...

(second time)

|-------------------------------------------------------------
|-------------------------------------------------------------
|--9----------------------------------------------------------
|--9----------5-5-5-5-4-4-4-4---------------------------------
|--7--7-7-7-7-----------------5-5-5-5-------------------------
|-------------------------------------3-3-3-3-2-2-2-2-3-3-3-3-


|-------------------------------------------------------------
|-------------------------------------------------------------
|-------------------------------------------------------------
|------------------5-5-5-5-4-4-4-4----------------------------
|--7-7-7-7-7-7-7-7-----------------5-5-5-5--------------------
|------------------------------------------3-3-3-3-2-2-2-2-3-3


       Iím  becoming you...

|-------------------------------------------------------------
|-------------------------------------------------------------
|---------------------------------------------3---------------
|------2-2--2-2--2-2--2-2--2-2--2-2--2-2--2-2-3---------------
|------2-2--2-2--2-2--2-2--2-2--2-2--2-2--2-2-1---------------
|--3-3-0-0--0-0--0-0--0-0--0-0--0-0--0-0--0-0-----------------
       * *  * *  * *  * *  * *  * *  * *  * *

|-------------------------------------------------------------
|-------------------------------------------------------------
|------3-----3-----3-----3------------------------------------
|--2-2-3-2-2-3-2-2-3-2-2-3--9-9-9-8-8-8-7-7-7-6-6-6--5--4-----
|--2-2-1-2-2-1-2-2-1-2-2-1--9-9-9-8-8-8-7-7-7-6-6-6--5--4-----
|--0-0---0-0---0-0---0-0----7-7-7-6-6-6-5-5-5-4-4-4--3--2-----
   * *   * *   * *   * *


|-------------------------------------------------------------
|-------------------------------------------------------------
|--9---8---7---6---5---4-------------------------------------
|--9---8---7---6---5---4-------------------------------------
|--7---6---5---4---3---2-------------------------------------
|-------------------------------------------------------------


   Dad, I wanna tell ya...
|-------------------------------------------------------------
|-------------------------------------------------------------
|--13-13-13-13-13-13-13-13-13-13-13-13-13-13-13-13------------
|---*--*--*--*--*--*--*--*--*--*--*--*--*--*--*--*------------
|--11-11-11-11-11-11-11-11-11-11-11-11-11-11-11-11------------
|-------------------------------------------------------------
|
|-------------------------------------------------------------
|-------------------------------------------------------------
|-------------------------------------------------------------
|---2--2--2--2--2--2--2--2--2--2--2--2--2--2--2--2------------
|---2--2--2--2--2--2--2--2--2--2--2--2--2--2--2--2------------
|---0--0--0--0--0--0--0--0--0--0--0--0--0--0--0--0------------

|-------------------------------------------------------------
|-------------------------------------------------------------
|--13-13-13-13-13-13-13-13-13-13-13-13-13-13-13-13------------
|---*--*--*--*--*--*--*--*--*--*--*--*--*--*--*--*------------
|--11-11-11-11-11-11-11-11-11-11-11-11-11-11-11-11------------
|-------------------------------------------------------------
|
|-------------------------------------------------------------
|-------------------------------------------------------------
|---6--6--6--6--6--6--6--6--6--6--6--6--6--6--6--6------------
|---6--6--6--6--6--6--6--6--6--6--6--6--6--6--6--6------------
|---4--4--4--4--4--4--4--4--4--4--4--4--4--4--4--4------------
|-------------------------------------------------------------

I just wanna take away...
|-------------------------------------------------------------
|-------------------------------------------------------------
|--14-14-14-14-14-14-14-14--11-11-11-11-11-11-11-11-----------
|---*--*--*--*--*--*--*--*---*--*--*--*--*--*--*--*-----------
|--12-12-12-12-12-12-12-12---9--9--9--9--9--9--9--9-----------
|-------------------------------------------------------------
|
|-------------------------------------------------------------
|-------------------------------------------------------------
|--7--7--7--7--7--7--7--7-------------------------------------
|--7--7--7--7--7--7--7--7----7--7--7--7--7--7--7--7-----------
|--5--5--5--5--5--5--5--5----7--7--7--7--7--7--7--7-----------
|----------------------------5--5--5--5--5--5--5--5-----------





Comments


Popular Goldfinger tabs & chords
The City Has Two Faces Bass Tabs
The Innocent Bass Tabs
Youth Bass Tabs
Free Me 1 Chords
Free Me 2 Chords
Wasted Chords
January Tabs
Open Your Eyes 2 Tabs
My Girlfriends Shower Sucks Ukulele
Upper Hand Ukulele


Song lyrics



↑ Back to top | Tablatures and chords are parodies/interpretations of the original songs. You may use it for private study, scholarship, research or language learning purposes only
© 2014 AZChords.com Contact us | Privacy policy | DMCA | Add/correct tabs | Request tabs | Top 50 tabs