>
 >
Counting The Days

Counting The Days Bass Tabs

Goldfinger - Counting The Days chords, tabs, tablatures, lyrics

Guitar lessons | Add/correct | Request | Top 50 tabs Artists:  A B C D E F G H I J K L M N O P Q R S T U V W X Y Z 0-9

Counting The Days Bass Tabs – Goldfinger

CD, Sheet music, Poster

Do you like Counting The Days? Share with your friends now
Bass TabsBass Tabs v2Bass Tabs v3TabsTabs v2
Intro
G|----------------------------------------------------|
D|----------------------------------------------------|
A|-7777---------------7777----------------------------|
E|-----7777-5555-77-55----7777-5555-777//4------------|

Verse 1 
G|----------------------------------------------------|
D|----------------------------------------------------|
A|-----7777-55555555---------55555555-----------------|
E|-5555-------------5555-4444-------------------------|

G|----------------------------------------------------|
D|------------------4-6-7777-6666---------------------|
A|-----7777-5555-5-7-------------5///17---------------|
E|-5555-----------------------------------------------|

Prechorus 1
G|----------------------------------------------------|
D|---------------------4-2----------------------------|
A|----2-4-6-4---4-5-7-2---4---2-4-6-4---4-5-7////-----|
E|-2-5---4---4-5-----------2-5---4---4-5--------------|

G|----------------------------------------------------|
D|----------------------------------------------------|
A|-14-14-14-14-14-14-14-14-14-14-14-14----------------| (play fast)
E|----------------------------------------------------|

Chorus 1
G|----------------------------------------------------|
D|----------------------------------------------------|
A|-7777---------------7777-----7-(hold note)----------|
E|-----7777-5555-77-55----77-55-----------------------|

Verse 2
G|----------------------------------------------------|
D|----------------------------------------------------|
A|-------7777-555-4-555-7----------5555---------------|
E|-4-5555----------------5555-4444-----0-0-0----------|

G|----------------------------------------------------|
D|---------9-7-6---------2---------9-7----------------|
A|--4-5-9-7------------4----4-5-9-7---9---------------|
E|-5------------55-33-2-0--5--------------------------|

Prechorus 2
G|----------------------------------------------------|
D|----------------------------------6-----------------|
A|----2-4-6-4---4-5-7-22-0-----2-4-6-6-4-5-7///-------|
E|-2-5---4---4-5----------4-2-5---4---5---------------|

G|-----------------------16-14------------------------|
D|------------------14h16-----16-14-------------------|
A|-14-14-14-14-14-14----------------------------------| (play fast)
E|----------------------------------------------------|

Chorus 2
G|----------------------------------------------------|
D|----------------------------------------------------|
A|-7777---------------7777-----7777-------------------|
E|-----7777-5555-77-55----77-55----77-555-555---------|

G|---------------------------------------------------|
D|----------------------6-7-9------------4-2---------|
A|---------------------7------9-7---0-4-2-0----------|
E|-0000-7777-5555-77-55------7-5-0-4--------0-(hold)-|

Bridge
G|-(rest)--------------------------------------------|
D|-(rest)--------------------------------------------|
A|-(rest)------7-----6-4---4-5-7---------------------| (then pause)
E|-(rest)---0-----2-4---4-5-----6h77-777-6h77-777----|

G|------------------------------16-14-----14---------|
D|--9-9-9-9---11-----------14h16-----16-14--16-14----|
A|-7-7-6-6--11--11-14-14-14--------------------------|
E|---------9-----------------------------------------|

Last Chorus
G|---------------------------------------------------|
D|---------------------------------------------------|
A|-7777---------------7777-----7777------------------|
E|-----7777-5555-77-55----77-55----77-555-555--------|

G|--------------------------------------------------|
D|------------------------------4-2-----------------|
A|-------------------------0-4-2-0------------------|
E|-0000-7777-5555-77-55-0-4--------0-(hold note)--0-|

   well thats that. this is my first tab for one of my fave Goldfinger 
Songs. Please rate this tab. Any comments or Questions E-mail me at 





Comments


Popular Goldfinger tabs & chords
Decision Bass Tabs
Decision 2 Bass Tabs
Open Your Eyes Bass Tabs
Spokerman Bass Tabs
This Lonely Place Chords
*** You And Your Cat Tabs
99 Red Balloons Tabs
Kids Are Alright Tabs
Mable 1 Tabs
This Lonely Place Tabs


Song lyrics



↑ Back to top | Tablatures and chords are parodies/interpretations of the original songs. You may use it for private study, scholarship, research or language learning purposes only
© 2014 AZChords.com Contact us | Privacy policy | DMCA | Add/correct tabs | Request tabs | Top 50 tabs