» » »

Goldfinger, Counting The Days Tabs (ver.1)

Artists:  A B C D E F G H I J K L M N O P Q R S T U V W X Y Z # 

Counting The Days Tabs (ver.1)

Goldfinger Tabs
Rating:
5/5 (1 vote)
Hard to play? Try these video lessons and learn fast.
                Goldfinger-Counting the Days

Intro/Solo
gtr1
e----------------------------------------------------------------------------|
b----------------------------------------------------------------------------|
g----------------------------------------------------------------------------|
d-9--------------------------------9-----------------------------------------|
a--11-9-7/9-7/9-11-9-7--/12-11-9-7--11-9-7/9-7/9-11-11/12p11----5-4-7--5-4-7-|
E------------------------------------------------------------3/5------5------|

gtr2
e---------------------------------------------------------------------------|
b---------------------------------------------------------------------------|
g-9-x9-x9-x9-------------------------/14-13-11-9-9-x9-x9-x9-----------------|
d-9-x9-x9-x9-x9-x9-x9-x9-x7-x7-x7-x7--x--x--x--x-9-x9-x9-x9-x9-x9-x9-x9-7---|
a-7-x7-x7-x7-x9-x9-x9-x9-x7-x7-x7-x7-/12-11-9--7-7-x7-x7-x7-x9-x9-x9-x9-7---|
E------------x7-x7-x7-x7-x5-x5-x5-x5------------------------x7-x7-x7-x7-5---|

Verse
e---------------------------------------------------------------|
b---------------------------------------------------------------|
g---------------------------------------------------------------|
d---------9-9-9-9-----------------------------------------------|
a-7-7-7-7-7-7-7-7-9-9-9-9-9-9-9-9-9-117-7-7-7-7-7-7-7-9-9-9-9---|
E-5-5-5-5---------7-7-7-7-7-7-7-7-7-9-5-5-5-5-4-4-4-4-7-7-7-7---|
  . . . . . . . . . . . . . . . .     . . . . . . . . . . . .

e-------------------------------------------------------|
b-------------------------------------------------------|
g-------------------------------------------------------|
d---------9-9-9-9---------------------9-9-9-9-----------|
a-7-7-7-7-7-7-7-7-9-9-9-9-9-117-7-7-7-7-7-7-7-9-9-9-9---|
E-5-5-5-5---------7-7-7-7-7-9-5-5-5-5---------7-7-7-7---|
  . . . . . . . . . . . .     . . . . . . . . . . . .

Pre-Chorus
gtr1
e----------------------------------------|
b----------------------------------------|
g----------------------------------------|
d--------------------------------9-9-9-9-|
a--------------------------------9-9-9-9-|
E-3~4~5~7~---3~4~5~7-6-5-4-3~4~5~7-7-7-7-|

gtr2
e-------------------------------------------------------------------|
b-------------------------------------------------------------------|
g-------------------------------------------------------------------|
d-5-5-5-5-6-6-6-6-7-7-7-7-9-9-9-9-5-5-5-5-6-6-6-6-7-7-7-7-99999999--|
a-5-5-5-5-6-6-6-6-7-7-7-7-9-9-9-9-5-5-5-5-6-6-6-6-7-7-7-7-99999999--|
E-3-3-3-3-4-4-4-4-5-5-5-5-7-7-7-7-3-3-3-3-4-4-4-4-5-5-5-5-77777777--|

Chorus
e---------------------------------------------------------------------------|
b---------------------------------------------------------------------------|
g-9-x9-x9-x9-------------------------/14-13-11-9-9-x9-x9-x9-----------------|
d-9-x9-x9-x9-x9-x9-x9-x9-x7-x7-x7-x7--x--x--x--x-9-x9-x9-x9-x9-x9-x9-x9-7---|
a-7-x7-x7-x7-x9-x9-x9-x9-x7-x7-x7-x7-/12-11-9--7-7-x7-x7-x7-x9-x9-x9-x9-7---|
E------------x7-x7-x7-x7-x5-x5-x5-x5------------------------x7-x7-x7-x7-5---|


Verse
e-------------------------------------------------------------------------|
b-------------------------------------------------------------------------|
g-------------------9-----------------------------------------------------|
d-7---------9-9-9-9-9---------------------------------------------2-2-2-2-|
a-7-7-7-7-7-7-7-7-7-7-9-9-9-9-9-9-9-9-9-117-7-7-7-7-7-7-7-9-9-9-9-2-2-2-2-|
E-5-5-5-5-5-----------7-7-7-7-7-7-7-7-7-9-5-5-5-5-4-4-4-4-7-7-7-7-0-0-0-0-|
    . . . . . . . .   . . . . . . . .     . . . . . . . . . . . .

e-----------------------------------------------------|
b-----------------------------------------------------|
g-----------------------------------------------------|
d---------9-9-9-9-----------------------------9-9-9-9-|
a-7-7-7-7-7-7-7-7-9-9-9-9-9-9-9-9-9-117-7-7-7-7-7-7-7-|
E-5-5-5-5---------7-7-7-7-7-7-7-7-7-9-5-5-5-5---------|
  . . . . . . . . . . . . . . . .     . . . . . . . .

Pre-Chorus
gtr1
e----------------------------------------|
b----------------------------------------|
g----------------------------------------|
d--------------------------------9-9-9-9-|
a--------------------------------9-9-9-9-|
E-3~4~5~7~---3~4~5~7-6-5-4-3~4~5~7-7-7-7-|

gtr2
e------------------------------------------------------------------|
b------------------------------------------------------------------|
g------------------------------------------------------------------|
d-5-5-5-5-6-6-6-6-7-7-7-7-9-8-7-6-5-5-5-5-6-6-6-6-7-7-7-7-99999999-|
a-5-5-5-5-6-6-6-6-7-7-7-7-9-8-7-6-5-5-5-5-6-6-6-6-7-7-7-7-99999999-|
E-3-3-3-3-4-4-4-4-5-5-5-5-7-6-5-4-3-3-3-3-4-4-4-4-5-5-5-5-77777777-|

Chorus x2
e----------------------------------------------------------------------------|
b----------------------------------------------------------------------------|
g-9-x9-x9-x9-------------------------/14-13-11-9-9-x9-x9-x9------------------|
d-9-x9-x9-x9-x9-x9-x9-x9-x7-x7-x7-x7--x--x--x--x-9-x9-x9-x9-x9-x9-x9-x9-7----|x7
a-7-x7-x7-x7-x9-x9-x9-x9-x7-x7-x7-x7-/12-11-9--7-7-x7-x7-x7-x9-x9-x9-x9-7----|x7
E------------x7-x7-x7-x7-x5-x5-x5-x5------------------------x7-x7-x7-x7-5----|x5

e-------------------|
b-------------------|
g-------------------|
d-x7-x7-x9-x9-x7-x7-|
a-x7-x7-x9-x9-x7-x7-|
E-x5-x5-x7-x7-x5-x5-|

Bridge
gtr1
e-----0----0----0----0-----0----0----0----0---7----7----7----7-----7---7------|
b----0-0--0-0--0-0--0-0---0-0--0-0--0-0--0-0-7-7--7-7--7-7--7-7---7-7-7-------|
g-4/9---98---86---64---4/9---98---86---64---9---98---86---64---4/9---8--7777--|
d-----------------------------------------------------------------------7777--|
a-----------------------------------------------------------------------5555--|
E-----------------------------------------------------------------------------|(do this 2 times)^

gtr2
e----------------------------------------------------------------------------|
b----------------------------------------------------------------------------|
g----------------------------------------------------------------9------7777-|
d-------------------------------7p67p67p67p6---------------------9---7--7777-|
a----------------------------------------------------------------7---7--5555-|
E--------------------------------------------------------------------5-------|
                                                         (do this 2 times)^

Chorus
e---------------------------------------------------------------------------|
b---------------------------------------------------------------------------|
g---------------------------------------------------------------------------|
d-9xx9xx9xx9------------------------------------9xx9xx9xx9------------------|
a-7xx7xx7xx7xx9xx9xx9xx9xx7xx7xx7xx7xx9xx9xx7xx77xx7xx7xx7x9x9x9x9x7x7x7x7--|
E-----------xx7xx7xx7xx7xx5xx5xx5xx5xx7xx7xx5xx5----------x7x7x7x7x5x5x5x5--|

e-------------------|
b-------------------|
g-------------------|
d-x9999999977777777-
a-x9999999977777777-
E-x7777777755555555-

Chorus/Outro x2
e----------------------------------------------------------------------------|
b----------------------------------------------------------------------------|
g-9-x9-x9-x9-------------------------/14-13-11-9-9-x9-x9-x9------------------|
d-9-x9-x9-x9-x9-x9-x9-x9-x7-x7-x7-x7--x--x--x--x-9-x9-x9-x9-x9-x9-x9-x9-7----|x7
a-7-x7-x7-x7-x9-x9-x9-x9-x7-x7-x7-x7-/12-11-9--7-7-x7-x7-x7-x9-x9-x9-x9-7----|x7
E------------x7-x7-x7-x7-x5-x5-x5-x5------------------------x7-x7-x7-x7-5----|x5

e-------------------|
b-------------------|
g-------------------|
d-x7-x7-x9-x9-x7-x7-|
a-x7-x7-x9-x9-x7-x7-|
E-x5-x5-x7-x7-x5-x5-|

after the second time, end on an E5 (7 on a for one guitar and open on E for the other)

--sam
            

comments powered by Disqus
↑ Back to top | Goldfinger Tabs for Counting The Days. Lyrics for acoustic guitar and electric guitar. Tablatures and chords are parodies/interpretations of the original songs. You may use it for private study, scholarship, research or language learning purposes only