» » »

Chicken Mcnuggets Tabs (ver.1)

Artists:  A B C D E F G H I J K L M N O P Q R S T U V W X Y Z # 

Chicken Mcnuggets Tabs (ver.1)

Goldfinger
Rating:
0/5 (0 votes)

Hard to play? Try these video lessons and learn fast.
                
This was an easy tab and I'm sure most of you know it already. I however have alot of
free time. So here ya go. For those of you who don't have this tab, ya do now. It's pretty
basic. Just listen to the song for the beat and timing. It won't be that hard to figure out.
Have fun.



         At the part:"Chicken Mcnuggets are Bad for you! Bad for you!"

	    B B   Gb Gb Gb   A  A  A  A  A  A
        E|------------------------------------------------|
        B|------------------------------------------------|
        G|--------11-11-11--14-14-14-14-14-14-------------|
        D|--9-9---11-11-11--14-14-14-14-14-14-------------|
        A|--9-9---9--9--9---12-12-12-12-12-12-------------|
        E|--7-7-------------------------------------------|

         At the part: "but they taste good!"
            B  A  G  F
        E|------------------------------------------------|
        B|------------------------------------------------|
        G|------------------------------------------------|
        D|--9--7--5--3------------------------------------|
        A|--9--7--5--3------------------------------------|
        E|--7--5--3--1------------------------------------|
            
Hard to play? Try these video lessons and learn fast. | Correct




comments powered by Disqus
↑ Back to top | Tablatures and chords are parodies/interpretations of the original songs. You may use it for private study, scholarship, research or language learning purposes only