>
 >
Bury Me

Bury Me Guitar Tabs

Goldfinger - Bury Me chords, tabs, tablatures, lyrics

Guitar lessons | Add/correct | Request | Top 50 tabs Artists:  A B C D E F G H I J K L M N O P Q R S T U V W X Y Z 0-9

Bury Me Guitar Tabs – Goldfinger

CD, Sheet music, Poster

Do you like Bury Me? Share with your friends now
Tabs
'Bury Me' by Goldfinger.

Standard Tuning

I love this song and realised no one had tabbed it so I thought I would. Enjoy. I
know it's not 100%.

Intro (Main Riff)

(Guitar 1)
----------------------------------------------------------------------|
----------------------------------------------------------------------|
--------------------------5--4----------------------------------------|
---2^3--2-----------------3--2--5--8--7--3--5-------------------------|
-----------3--6--5--1--3--------3--6--5--1--3-------------------------|
----------------------------------------------------------------------|

             --------------------------------------------------|
             --------------------------------------------------|
             --------------------------------------------------|
             -----------------------------3--2-----------------|
             --3--3--3--3--5--5--5--5-----------3--6--5--1--3--|
             --1--1--1--1--3--3--3--3--------------------------|

             --------------------------------------------------|
             --------------------------------------------------|
             --------------------------------------------------|
             -----------------------------3--2-----5--3--2-----|
             --3--3--3--3--5--5--5--5-----------3-----------3--|
             --1--1--1--1--3--3--3--3--------------------------|

             --------------------------------|
             --------------------------------|
             --------------------------------|
             --------------------------------|
             --3--3--3--3--5--5--5--5--5-----|
             --1--1--1--1--3--3--3--3--3-12/-|

(Guitar 2)
--------------------------------------------------------|
-------------------------------13-13-13-13--------------|
------10-10-10-10-12-12-12-12-x--x--x--x--12-12-12-12---|
------x--x--x--x--x--x--x--x--10-10-10-10-x--x--x--x----|
------8--8--8--8--10-10-10-10-------------10-10-10-10---|
--------------------------------------------------------|

--------------------------------------------------------|
------------------------------13-13-13-13-13-13-13-13---|
------10-10-10-10-12-12-12-12-x--x--x--x--x--x--x--x----|
------x--x--x--x--x--x--x--x--10-10-10-10-10-10-10-10---|
------8--8--8--8--10-10-10-10---------------------------|
--------------------------------------------------------|

--------------------------------------|
--------------------------------------|
------10-10-10-10-12-12-12-12---------|
------x--x--x--x--x--x--x--x----------|
------8--8--8--8--10-10-10-10---------|
------------------------------12/-----|

Verse:

--------------------------------------------0------|
--------0-----------0-----------0------------------|
-----0-----0-----0-----0-----0-----0-----0-----0---|   X2
---------------------------------------------------|
--7-----------7-----------6-----------6------------|
---------------------------------------------------|

'I'm so tired...'   !!!!!NOTICE: how often the high E is hit!!!!!
---------------------------------------------------|
--------0-----------0-----------0-----------0------|
-----0-----0-----0-----0-----0-----0-----0-----0---|
---------------------------------------------------|
--7-----------7-----------6-----------6------------|
---------------------------------------------------|

--------------------------------------------0------|
--------0-----------0-----------0------------------|
-----0-----0-----0-----0-----0-----0-----0-----0---|
---------------------------------------------------|
--7-----------7-----------6-----------6------------|
---------------------------------------------------|

Pre Chorus:

--------------------------------------------------------------------------|
--------------------------------------------------------------------------|
--------------------------------------------------------------------------|
---3-3----5-5----7-7-7-7-7-7-7-7--3-3-x---5-5----6-6-6-6-6-6-6-6----------|
---3-3----5-5----7-7-7-7-7-7-7-7--3-3-x---5-5----6-6-6-6-4-4-4-4----------|
---1-1----3-3----5-5-5-5-5-5-5-5--1-1-x---3-3----4-4-4-4-4-4-4-4--12/-----|

Chorus:                         |========='Bury Me' section,repeat however
                                |                many times needed.
                                |
-------------------------/==============------------------------|
------------------------/---------------\-----------------------|
--5555-----------------/-----------5555--\----------------------|    X2
--5555-5555-7777-3333-|--6666-5555-5555--|----------------------|
--3333-5555-7777-3333-|--6666-5555-3333--|----------------------|
-------3333-5555-1111-|--4444-3333-------|----------------------|

Verse 2 = same as v. 1
Chorus
Bridege:

             --------------------------------------------------|
             --------------------------------------------------|
             --------------------------------------------------|
             -----------------------------3--2-----------------| X2
             -----------------------------------3--6--5--1--3--|
             --------------------------------------------------|

             --------------------------------------------------|
             --------------------------------------------------|
             --------------------------------------------------|
             -----------------------------3--2-----------------| X2
             --------3-----------5--------------3--6--5--1--3--|
             --1--1-----1--3--3-----3--------------------------|

Then just play intro again. And on 4th time go to: --------------|
                                                   --------------|
                                                   --------------|
                                                   ------6-------|
                                                   ------6-------|
                                                   ------4-------|
                                                        (Muted)

Pre Chorus without the -----|
                       -----|
                       -----|
                       -5-5-|
                       -5-5-|
                       -3-3-|

Chorus, intro riff and end on -----|
                              -----|
                              -----|
                              --6--|
                              --6--|
                              --4--|

Cheeers.





Comments


Popular Goldfinger tabs & chords
If Only Bass Tabs
Youth Bass Tabs
Behind The Mask Chords
Disorder Drum Tabs
Just Like Heaven Tabs
Miles Away 1 Tabs
Spokesman 1 Tabs
Nothing To Prove Ukulele
San Simeon Ukulele
Superman Ukulele


Song lyrics



↑ Back to top | Tablatures and chords are parodies/interpretations of the original songs. You may use it for private study, scholarship, research or language learning purposes only
© 2014 AZChords.com Contact us | Privacy policy | DMCA | Add/correct tabs | Request tabs | Top 50 tabs