» » »

Goldfinger, Authority Tabs (ver.1)

Artists:  A B C D E F G H I J K L M N O P Q R S T U V W X Y Z # 

Authority Tabs (ver.1)

Goldfinger Tabs
 Rating:
4/5 (4 votes)
Authority lessons Tabs too difficult? Try these video lessons and learn fast
                -------------------------------------------------------------------------------
-------------------------------------------------------------------------------
Tuning:Standard

Easy song.

Intro - Lead
e|---------------------------|--|--------------------------------------------|
B|---------------------------|--|--------------------------------------------|
G|-777777777777-555555-------|--|----------------------------------5----4----|
D|-xxxxxxxxxxxx-xxxxxx-555555|X2|-4-5-4-5/7-7-5-55------4-5-4----------------|
A|-555555555555-333333-xxxxxx|--|------------------5-55-------5-55---55---55-|
E|---------------------333333|--|--------------------------------------------|

Intro - Rhythm (enters on second lead chord progression)
e|---------------------------------------------------------------------------|
B|-555555---------7-7-7-7-5-55------7-7-7-7-555555---------------------------|
G|-555555-444444--7-7-7-7-5-55-4-44-7-7-7-7-555555-444444--------------------|
D|-555555-555555--7-7-7-7-5-55-5-55-7-7-7-7-555555-555555--------------------|
A|-333333-555555--5-5-5-5-3-33-5-55-5-5-5-5-333333-555555--------------------|
E|--------333333---------------3-33----------------333333--------------------|

Verse
e|---------------------------------------------------------------------------|
B|-7-7-7-77-7------------7-7-7-77-7-5-55------7-7-7-77-7------------7-7-7-77-|
G|-7-7-7-77-7-4-4-4-44-4-7-7-7-77-7-5-55-4-44-7-7-7-77-7-4-4-4-44-4-7-7-7-77-|
D|-7-7-7-77-7-5-5-5-55-5-7-7-7-77-7-5-55-5-55-7-7-7-77-7-5-5-5-55-5-7-7-7-77-|
A|-5-5-5-55-5-5-5-5-55-5-5-5-5-55-5-3-33-5-55-5-5-5-55-5-5-5-5-55-5-5-5-5-55-|
E|------------3-3-3-33-3-----------------3-33------------3-3-3-33-3----------|

e|---------------------------------------------------------------------------|
B|-----1~---2-2-2-22-22-22-22-22-2-------------------7~----------------------|
G|---2~--0~-2-2-2-22-22-22-22-22-24-4--44-44-x5-55-5-7~----------------------|
D|-0~-------2-2-2-22-22-22-22-22-25-5--55-44-x5-55-5-7~----------------------|
A|----------0-0-0-00-00-00-00-00-05-5--55-22-x3-33-3-5~----------------------|
E|--------------------------------3-3--33------------------------------------|

Pre Verse 2 - lead
e|---------------------------------------------------------------------------|
B|---------------------------------------------------------------------------|
G|-555555--------------------------------------------------------------------|
D|-xxxxxx-555555-------------------------------------------------------------|
A|-333333-xxxxxx-------------------------------------------------------------|
E|--------333333-------------------------------------------------------------|

Verse 2 (Palm Mute)
e|---------------------------------------------------------------------------|
B|---------------------------------------------------------------------------|
G|---------------------------------------------------------------------------|
D|-7-7-7-7---------7-7-7-7-5-5-----7-7-7-7---------7-7-7-7-5-5---------------|
A|-5-5-5-5-5-5-5-5-5-5-5-5-3-3-3-3-5-5-5-5-5-5-5-5-5-5-5-5-3-3-5-5-----------|
E|---------3-3-3-3-------------5-5---------3-3-3-3-------------3-3-----------|

Pre-Chorus
e|---------------------------------------------------------------------------|
B|-2-2-2-2-2-2-2-2-----------------------------------------------------------|
G|-2-2-2-2-2-2-2-2-4-4---444-x5-55-5-----------------------------------------|
D|-2-2-2-2-2-2-2-2-5-5---544-x5-55-5-----------------------------------------|
A|-0-0-0-0-0-0-0-0-5-5---522-x3-33-3-----------------------------------------|
E|-----------------3-3---3---------------------------------------------------|

Chorus - Lead     X4
e|---------------------------------------------------------------------------|
B|---------------------------------------------------------------------------|
G|-777777777777-555555-------------------------------------------------------|
D|-xxxxxxxxxxxx-xxxxxx-555555------------------------------------------------|
A|-555555555555-333333-xxxxxx------------------------------------------------|
E|---------------------333333------------------------------------------------|

Chorus - Rhythm   X4
e|-5-5-5-5-3-3-3-3-----------------------------------------------------------|
B|-7-7-7-7-5-5-3-3-----------------------------------------------------------|
G|-7-7-7-7-5-5-4-4-----------------------------------------------------------|
D|-7-7-7-7-5-5-5-5-----------------------------------------------------------|
A|-5-5-5-5-3-3-5-5-----------------------------------------------------------|
E|-------------3-3-----------------------------------------------------------|

e|---------------------------------------------------------------------------|
B|-2-2-2-2-2-2-2-2-----------------------------------------------------------|
G|-2-2-2-2-2-2-2-2-4-4~--4-4-4-----------------------------------------------|
D|-2-2-2-2-2-2-2-2-5-5~--5-5-5-----------------------------------------------|
A|-0-0-0-0-0-0-0-0-5-5~--5-5-5-----------------------------------------------|
E|-----------------3-3~--3-3-3-----------------------------------------------|

Solo
e|---------------------------------------------------------------------------|
B|---------------------------------------------------------------------------|
G|-11-12-11-12/14-14--12-12-------11-12-11-12/14-14--12-12-------------------|
D|--------------------------12-12--------------------------12--------4-5-4---|
A|------------------------------------------------------------9-10\5---------|
E|---------------------------------------------------------------------------|

e|---------------------------------------------------------------------------|
B|----------10------8--------------------------------------------------------|
G|-------/9----9p7----7---7h11-11-11p7-7-7h11-11-11p7-7-7h9-9-9p7-7-7~-------|
D|-5/7-7----------10---------------------------------------------------------|
A|---------------------------------------------------------------------------|
E|---------------------------------------------------------------------------|

Post Solo
e|---------------------------------------------------------------------------|
B|-2-2-2-2-2-2-2-2-----------------------------------------------------------|
G|-2-2-2-2-2-2-2-2-4-4-4~----------------------------------------------------|
D|-2-2-2-2-2-2-2-2-5-5-5~----------------------------------------------------|
A|-0-0-0-0-0-0-0-0-5-5-5~----------------------------------------------------|
E|-----------------3-3-3~----------------------------------------------------|

Clean Guitar
e|-2-222-222-0-00-0-3-33-3---------------------------------------------------|
B|-3-333-333-1-11-1-0-00-0---------------------------------------------------|
G|-2-222-222-0-00-0-0-00-0---------------------------------------------------|
D|-0-000-000-2-22-2-0-00-0---------------------------------------------------|
A|-----------3-33-3-2-22-2---------------------------------------------------|
E|------------------3-33-3---------------------------------------------------|

Verse 3 Lead (those are 10's, 12's, 14's, etc...)
e|---------------------------------------------------------------------------|
B|---------------------------------------------------------------------------|
G|---------------------------------------------------------------------------|
D|-777777777777-101010101010101010101010-121212121212121212121212-1414141414-|
A|---------------------------------------------------------------------------|
E|---------------------------------------------------------------------------|

e|---------------------------------------------------------------------------|
B|---------------------------------------------------------------------------|
G|---------------------------------------------------------------------------|
D|-14-171717171717-161616161616161616161616-191919191919191919191919-21212121|
A|---------------------------------------------------------------------------|
E|---------------------------------------------------------------------------|

e|---------------------------------------------------------------------------|
B|---------------------------------------------------------------------------|
G|---------------------------------------------------------------------------|
D|-2121-181818181818-191919191919--------------------------------------------|
A|---------------------------------------------------------------------------|
E|---------------------------------------------------------------------------|

Pre-Chorus X2

Chorus - lead and rhythm

pre chorus to end.

End on 'A' Chord

Thanks for vieweing, this was hard work to tab,
************************************

| /   slide up
| \   slide down
| h   hammer-on
| p   pull-off
| ~   vibrato
| +   harmonic
| x   Mute note
| b   Bend
| pb  Pre-bend
| br  Bend release
| pbr Pre-bend release
| brb Bend release bend

************************************
            
Submit corrections

comments powered by Disqus
↑ Back to top | Goldfinger Tabs for Authority. Lyrics for acoustic guitar and electric guitar. Tablatures and chords are parodies/interpretations of the original songs. You may use it for private study, scholarship, research or language learning purposes only