» » »

Goldfinger, At The End Of The Day Bass tabs (ver.1)

Artists:  A B C D E F G H I J K L M N O P Q R S T U V W X Y Z # 

At The End Of The Day Bass tabs (ver.1)

Goldfinger Tabs
Rating:
0/5 (0 votes)
At The End Of The Day lessons Tabs too difficult? Try these video lessons and learn fast
                This my first tab so it isn't perfect but it sounds ok though.

intro/verse 1     bass doesn't come in straight away
------0/5------0--1-1-1-1--6-7-7-7-7--2-3-3-3-3--3-5-5-5-5--5-6-6-6-6--|

------------------------||
------------------------||
----6-------------------||
------2-2-2-2---2-3-----||

-----||
-----||
-0-0-||
-----||

verse 2

-----7-7-777--7-8-8-888------------------------------------------------|
-------------------------8-5-5-555--5-6-6-666--------------------------|

Chorus
----5-5-5-5--01-1-1-1--67-7-7-7--23-3-3-3--35-5-5-5-56-6-6-6-----------|

---62-2-2-2-23-3-3-3---------------------------------------------------|

repeat verse 2 again x4
repeat chorus

last verse/outtro
------3-3-333--35-5-555--57-7-777--79-9-999----------------------------| and slow 
                                                                         it down near
                                                                         the end
            

comments powered by Disqus
↑ Back to top | Goldfinger Bass for At The End Of The Day. Lyrics for acoustic guitar and electric guitar. Tablatures and chords are parodies/interpretations of the original songs. You may use it for private study, scholarship, research or language learning purposes only