» » »

Goldfinger, 99 Red Balloons Tabs (ver.3)

Artists:  A B C D E F G H I J K L M N O P Q R S T U V W X Y Z # 

99 Red Balloons Tabs (ver.3)

Goldfinger Tabs
 Rating:
4/5 (4 votes)
99 Red Balloons lessons Tabs too difficult? Try these video lessons and learn fast
1
                (100)
Standard Tuning       

x-mute
b-bend
p-pull-off
h-hammer-on
~-vibrato 
     
E--5---7---3---5--
B--7---9---3---5--  MAIN CHORDS
G--7---9---4---6--
D--7---9---5---7--
A--5---7---5---7--
E----------3---5--

INTRO
E-----
B----- 
G--9-- 
D--x--
A--7--
E-----
                                                                          
E--------------------|-------------------|-------------------|----------------|
B--------------------|-------------------|-------------------|----------------|
G--------------------|-------------------|-------------------|----------------|
D--2-2---2---2h4-2---|-2-2---2-----------|-2-2---2---2h4-2---|-2-2---2----7x--|
A------4---4-------2-|-----4---4---------|-----4---4-------2-|-----4---4--7x--|
E--------------------|-----------5-5-5-7-|-------------------|------------5x--|
                                                                        
E--------------------|-------------------|-------------------|----------------|
B--------------------|-------------------|-------------------|----------------|
G--------------------|-------------------|-------------------|----------------|
D----2---2---2h4-2---|-2-2---2-----------|-2-2---2---2h4-2---|-2-2---2----7---|
A------4---4-------2-|-----4---4---------|-----4---4-------2-|-----4---4--7---|
E--------------------|-----------5-5-5-7-|-------------------|------------5---|

VERSE 1

Guitar 1 plays MAIN CHORDS 4x

SOLO 1
Guitar 2 plays this, 

E----------------------------------|--------------------------------------|
B----7---7-------7-----------------|------7---7-------7---------10-7---7--| 
G--9---7---9-7-----9-7-7---7---7-9-|--7-9---7---9-7-----9-7-7--------9----| 
D--------------9---------9---9-----|----------------9---------9-----------|	
A----------------------------------|--------------------------------------| 
E----------------------------------|--------------------------------------|

VERSE 2

Guitar 2 plays MAIN CHORDS only with palm muted guitar 2x then,
Both Guitars strum the MAIN CHORDS every beat the 3rd time then,
Guitar 1 plays MAIN CHORDS normally while Guitar 2 strums with ska upstrokes the 4th time.

Then Guitar 1 repeats BREAK 1 (the Octave) while Guitar 2 plays this,

E------------|----------------|
B------------|----------------| Play 2x
G------------|----------------|
D--2-2---2---|-2-2---2---2----|
A------4---4-|-----4---4------|
E------------|-------------2~-|

Then repeat BREAK 2

VERSE 3

Repeat VERSE 1.

SOLO 2
Guitar 2 repeats SOLO 1 and then plays this,

E--------------------------|            
B--------------------------| Repeat 4x
G--9h11-11-11-11-9-9-9-9---|
D--------------------------|
A--------------------------|
E--------------------------|

Then Guitar 2 plays this,

E-----------------------------|-------------------------------------------|  
B--12-12-9-12-12p9-9-9-12-12--|--9-12-12p9-9-9-12p9-12-12-9-12-12p9-9-9\--|
G-----------------------------|-------------------------------------------|
D-----------------------------|-------------------------------------------| 
A-----------------------------|-------------------------------------------| 
E-----------------------------|-------------------------------------------| 

|-------------------------------------------| 
|--9-12-12p9-9-9-12p9-12-12-9-12-12p9-9-9\--| 
|-------------------------------------------| 
|-------------------------------------------| 
|-------------------------------------------| 
|-------------------------------------------| 

Both Guitars then play

   B5  E5
E---------|            
B---------| 
G--4---1--|
D--4---2--|
A--2---2--|
E------0--|

OUTRO

Guitar 1 plays MAIN CHORDS 4x with clean guitar.
            
Submit corrections

comments powered by Disqus
↑ Back to top | Goldfinger Tabs for 99 Red Balloons. Lyrics for acoustic guitar and electric guitar. 1 Tablatures and chords are parodies/interpretations of the original songs. You may use it for private study, scholarship, research or language learning purposes only