>
 >
99 Red Balloons

99 Red Balloons Bass Tabs

Goldfinger - 99 Red Balloons chords, tabs, tablatures, lyrics

Guitar lessons | Add/correct | Request | Top 50 tabs Artists:  A B C D E F G H I J K L M N O P Q R S T U V W X Y Z 0-9

99 Red Balloons Bass Tabs – Goldfinger

CD, Sheet music, Poster

Do you like 99 Red Balloons? Share with your friends now
Bass TabsBass Tabs v2Bass Tabs v3Bass Tabs v4ChordsChords v2Chords v3TabsTabs v2Tabs v3Tabs v4Tabs v5Tabs v6Tabs v7Ukulele
Gold Finger
Stomping Ground
Standard tuning
/=slide up
\=slide down

  Intro (just play this sofly in the backround
G|--------------------------------------------------------------------|
D|--------------------------------------------------------------------|
A|--------------------------------------------------------------------|
E|--0000000000000000000000000000000000000000000000000000000000000000--|

  Verse  0:28
G|--------------------------|
D|--------------------------|
A|--------------------------|
E|-/0-000-2-222-5-555-7-777-|x2

  Second Intro  0:40 (this is all slapping and popping)
G|-----9-9-----9-9-----|
D|---------------------|
A|---------------------|
E|--0-------0-------0--|

G|-------------------------------------------------------------------------|
D|--22---2------------22---2-----------22---2-------------22---2-----------|
A|-----4---4-------------4---4--222-4-----4---4--------------4---4-2xx-2xx-|
E|-----------2-4-2-0-----------------------------2-4-2-0-------------------|x2

  chorus/Solo
G|-----------------------------------|
D|-----------------------------------|
A|------------------0-00-00-2-22-22--|
E|--0-00-00-2-22-22------------------|x8

  Chorus Variation
G|------------------|
D|------------------|
A|----------00--22--|
E|--00--22----------|x1

G|-----------------------------------|
D|---------------------------------2-|
A|------------------0-00-00-2-22-24--|
E|--0-00-00-2-22-22------------------|

G|-----9-9-----9-9-----|
D|---------------------|
A|---------------------|
E|--0-------0-------0--|

G|-------------------------------------------------------------------------|
D|--22---2------------22---2-----------22---2-------------22---2-----------|
A|-----4---4-------------4---4--222-4-----4---4--------------4---4-2xx-2xx-|
E|-----------2-4-2-0-----------------------------2-4-2-0-------------------|x2

  chorus/Solo
G|-----------------------------------|
D|-----------------------------------|
A|------------------0-00-00-2-22-22--|
E|--0-00-00-2-22-22------------------|x like 5

It sounds like he's doin something like this...
G|--8h99-8h99--8h9-8h99-8h99-8h9-8h99-8h99-8h9-\\\\\\\-|
D|-----------------------------------------------------|
A|-----------------------------------------------------|
E|-----------------------------------------------------|

G|---------------------------------------|
D|---------------------------------------|
A|------------------0-00-00-2-22-22\\\\--|
E|--0-00-00-2-22-22----------------------|

G|----------------------------|
D|------------------------2\--|
A|------------0000--222-24----|
E|--0000--2222--------------0-|





Comments


Popular Goldfinger tabs & chords
99 Red Balloons 1 Bass Tabs
Fuck You And Your Cat 1 Bass Tabs
The Last Time 1 Bass Tabs
Behind The Mask Chords
Fuck You And Your Cat Chords
Happy Chords
Superman Tabs
Wasted Tabs
Anything Ukulele
Free Kevin Kjonaas 2 Ukulele


Song lyrics



↑ Back to top | Tablatures and chords are parodies/interpretations of the original songs. You may use it for private study, scholarship, research or language learning purposes only
© 2014 AZChords.com Contact us | Privacy policy | DMCA | Add/correct tabs | Request tabs | Top 50 tabs