» » »

Radar Love Bass tabs (ver.2)

Artists:  A B C D E F G H I J K L M N O P Q R S T U V W X Y Z # 

Radar Love Bass tabs (ver.2)

Golden Earring
Rating:
5/5 (1 vote)

Hard to play? Try these video lessons and learn fast.
                

                      Golden Earring - Radar Love
                         From the album Moontan


           q  q  w     q  q  w     q  q  q  q  h     h  h  h            
G---|---------------|-----------|-----------2-----|-----------||--------
D---|--6:-----2--4--|-----2-----|-----2--4-----2--|-----------||*-------
A---|--4:--4--------|--4-----2--|--4--------------|--0--2-----||*-------
E---|---------------|-----------|-----------------|--------0--||--------
                                                                        

        e  e  e  e  e  e  s  e  s     e  e  e  e  e  e  s  e  s         
G----------------------------------|------------------------------||----
D---4:-----------------------------|-----------------------------*||----
A---4:-----------------------0-----|-----------------------------*||----
E-------2--2--2--2--2--2--2-----0--|--2--2--2--2--2--2--2--0--0---||----
                                                                        

    e  e  e  e  e  e  e  e     e  e  e  e  e  e  e  e     e  e  e  e    
G---------------------------|--------------------------|----------------
D---------------------------|--------------------------|----------------
A---------------------------|--2--2--2--2--------------|----------------
E---0--0--0--0--0--0--0--0--|--------------2--2--2--2--|--0--0--0--0----
                                                                        

    e  e  e  e     e  e  e  e  e  e  e  e     e  e  e  e  e  e  e  e    
G---------------|--------------------------|----------------------------
D---------------|--------------------------|----------------------------
A---------------|--2--2--2--2--2--2--2--2--|--4--4--4--4--4--4--4--4----
E---0--0--0--0--|--------------------------|----------------------------
                                                                        

       h  h     h  h     h  h     w       e  e  s  s  e  s  s  s  e     
G---|--------|--------|--------|-----||---------------------------------
D---|--------|--------|--------|-----||*--------------------------------
A---|--5-----|--------|--5-----|-----||*-----0--------0--------0--------
E---|-----5--|--0--2--|-----5--|--0--||---2-----2--2-----2--2-----2-----
                                                                        

    s  e       s  s  s  s  s  s  q           q  q  q  h     q  q  q     
G----------||---------------------------||---------------|--------------
D---------*||-----------------------6:--||*--------------|--------------
A---------*||--4--4--4--4--4--4--4--4:--||*-----0--3--2--|-----0--2-----
E---2--0---||---------------------------||---2-----------|--2-----------
                                                                        

    h       q  q  q  q  q  q     q  q  q  H     q  q  q  q  q  q        
G-------||--------------------|--------------|--------------------|-----
D------*||--------------------|--2--3--4-----|--------------------|-----
A------*||-----0--3--2--3--4--|-----------2--|-----0--3--2--3--4--|-----
E---2---||--2-----------------|--------------|--2-----------------|-----
                                                                        

    q  q  q  H                                                          
G---------------||------------------------------------------------------
D---------------||------------------------------------------------------
A---2--3--4-----||------------------------------------------------------
E------------0--||------------------------------------------------------
                                                                        



========================================================================
==                       TABLATURE EXPLANATION                        ==
========================================================================

----------                ----------                ----t---
----5h8--- Hammeron       ----(8)--- Ghost          ----6--- Tap
----------                ---------- Note           --------
----5p8--- Pulloff        ----------                --------

----------                ----------                -----p--
----5/8--- Slide Up       -----x---- Dead           -----7-- Pop
----------                ---------- Note           --s-----
----5\8--- Slide Down     ----------                --5----- Slap 

----------                ||------|| Repeat         --------
----5~~~-- Vibrato        ||*----*||                ---5^--- Bend
----------                ||*----*||                --------
----------                ||------||                --------

----------                ----------                --------
-4:------- Time           ----------                --------
-4:------- Signature      ----------                --------
----------                ----------                --------

Rhythm:
  w = whole note            W = dotted whole
  h = half note             H = dotted half
  q = quarter note          Q = dotted quarter
  e = eighth note           E = dotted eighth
  s = sixteenth note        S = dotted sixteenth
  t = 32nd note             T = dotted 32nd
  x = 64th note             X = dotted 64th
  ^ = triplet

========================================================================
==               Created with BUCKET O' TAB for Windows               ==
========================================================================
            
Hard to play? Try these video lessons and learn fast. | Correct




comments powered by Disqus
↑ Back to top | Tablatures and chords are parodies/interpretations of the original songs. You may use it for private study, scholarship, research or language learning purposes only