» » »

Running Blind Tabs (ver.1)

Artists:  A B C D E F G H I J K L M N O P Q R S T U V W X Y Z # 

Running Blind Tabs (ver.1)

Godsmack
Rating:
0/5 (0 votes)

Hard to play? Try these video lessons and learn fast.
                This is the correct version without the solo part. Tuning is one half step down. Eb 
Db Gb Bb Eb

Chords
  Em   Asus  Cadd9
--0-----0------0--|
--0-----3------3--|
--0-----2------0--|
--2-----0------2--|
--2-----0------3--|
--0-----0------0--|


Intro
Guitar 1

|------Repeat 8x--------|

-0--0--0--0---0--0---0--|
-0--0--0--0---3--3---3--|
-0--0--0--0---2--2---0--|
-2--2--2--2---0--0---2--|
-2--2--2--2---0--0---3--|
-0--0--0--0---0--0---0--|

Guitar 2

|------Repeat 2x--------|------Repeat 6x-------|

--------0---------------|-------0--------------|
-----3----3------3--3---|-----3---3-----3p0--0-|
---2----------2---------|---2---------2--------|
------------------------|----------------------|
------------------------|----------------------|
------------------------|----------------------|

Verse
Can't find the answers.......
Repeat 8x
Guitar 1&2

-0--0--0--0---0--0---0--|
-0--0--0--0---3--3---3--|
-0--0--0--0---2--2---0--|
-2--2--2--2---0--0---2--|
-2--2--2--2---0--0---3--|
-0--0--0--0---0--0---0--|


Chorus
Guitars 1&2

goodbye! Runnin blind........|Sombody help me see I'm runnin blind.

|---------Repeat 3x----------|

-5--5--5--5--5/7--7--7--7--7-|-3--3--3--3--3--3--1--1--1--1--1--1---|
-5--5--5--5--5/7--7--7--7--7-|-3--3--3--3--3--3--1--1--1--1--1--1---|
-5--5--5--5--5/7--7--7--7--7-|-3--3--3--3--3--3--1--1--1--1--1--1---|
-7--7--7--7--7/9--9--9--9--9-|-5--5--5--5--5--5--3--3--3--3--3--3---|
-7--7--7--7--7/9--9--9--9--9-|-5--5--5--5--5--5--3--3--3--3--3--3---|
-5--5--5--5--5/7--7--7--7--7-|-3--3--3--3--3--3--1--1--1--1--1--1---|

Bridge
Guitar 1

|------Repeat 4x--------|

-0--0--0--0---0--0---0--|
-0--0--0--0---3--3---3--|
-0--0--0--0---2--2---0--|
-2--2--2--2---0--0---2--|
-2--2--2--2---0--0---3--|
-0--0--0--0---0--0---0--|

Guitar 2

|------Repeat 4x-------|

|-------0--------------|
|-----3---3-----3p0--0-|
|---2---------2--------|
|----------------------|
|----------------------|
|----------------------|

Verse

Verse
Searching for nothing.......
Repeat 8x
Guitar 1&2

-0--0--0--0---0--0---0--|
-0--0--0--0---3--3---3--|
-0--0--0--0---2--2---0--|
-2--2--2--2---0--0---2--|
-2--2--2--2---0--0---3--|
-0--0--0--0---0--0---0--|

Chorus
Guitars 1&2

die! Runnin blind............|     Sombody help me see I'm runnin blind.

|---------Repeat 3x----------|

-5--5--5--5--5/7--7--7--7--7-|-3--3--3--3--3--3--1--1--1--1--1--1---|
-5--5--5--5--5/7--7--7--7--7-|-3--3--3--3--3--3--1--1--1--1--1--1---|
-5--5--5--5--5/7--7--7--7--7-|-3--3--3--3--3--3--1--1--1--1--1--1---|
-7--7--7--7--7/9--9--9--9--9-|-5--5--5--5--5--5--3--3--3--3--3--3---|
-7--7--7--7--7/9--9--9--9--9-|-5--5--5--5--5--5--3--3--3--3--3--3---|
-5--5--5--5--5/7--7--7--7--7-|-3--3--3--3--3--3--1--1--1--1--1--1---|


Bridge
Runnin Blind! Runnin Blind!.....
Guitar 1

|------Repeat 4x--------|

-0--0--0--0---0--0---0--|
-0--0--0--0---3--3---3--|
-0--0--0--0---2--2---0--|
-2--2--2--2---0--0---2--|
-2--2--2--2---0--0---3--|
-0--0--0--0---0--0---0--|

Guitar 2

|------Repeat 4x-------|

|-------0--------------|
|-----3---3-----3p0--0-|
|---2---------2--------|
|----------------------|
|----------------------|
|----------------------|

Solo
Guitar 1

|-------Repeat 4x-------|

-0--0--0--0---0--0---0--|
-0--0--0--0---3--3---3--|
-0--0--0--0---2--2---0--|
-2--2--2--2---0--0---2--|
-2--2--2--2---0--0---3--|
-0--0--0--0---0--0---0--|

|---------Repeat 3x----------|

-5--5--5--5--5/7--7--7--7--7-|-3--3--3--3--3--3--1--1--1--1--1--1---|
-5--5--5--5--5/7--7--7--7--7-|-3--3--3--3--3--3--1--1--1--1--1--1---|
-5--5--5--5--5/7--7--7--7--7-|-3--3--3--3--3--3--1--1--1--1--1--1---|
-7--7--7--7--7/9--9--9--9--9-|-5--5--5--5--5--5--3--3--3--3--3--3---|
-7--7--7--7--7/9--9--9--9--9-|-5--5--5--5--5--5--3--3--3--3--3--3---|
-5--5--5--5--5/7--7--7--7--7-|-3--3--3--3--3--3--1--1--1--1--1--1---|

Bridge

Guitar 1

|------Repeat 4x--------|

-0--0--0--0---0--0---0--|
-0--0--0--0---3--3---3--|
-0--0--0--0---2--2---0--|
-2--2--2--2---0--0---2--|
-2--2--2--2---0--0---3--|
-0--0--0--0---0--0---0--|

Guitar 2

|------Repeat 4x-------|

|-------0--------------|
|-----3---3-----3p0--0-|
|---2---------2--------|
|----------------------|
|----------------------|
|----------------------|

Verse
Can't find the answers.......
Repeat 4x
Guitar 1&2

-0--0--0--0---0--0---0--|
-0--0--0--0---3--3---3--|
-0--0--0--0---2--2---0--|
-2--2--2--2---0--0---2--|
-2--2--2--2---0--0---3--|
-0--0--0--0---0--0---0--|

Outtro
Runnin blind! Runnin blind!

Guitar 1

|------Repeat 8x--------|

-0--0--0--0---0--0---0--|
-0--0--0--0---3--3---3--|
-0--0--0--0---2--2---0--|
-2--2--2--2---0--0---2--|
-2--2--2--2---0--0---3--|
-0--0--0--0---0--0---0--|

Guitar 2

|------Repeat 8x-------|

|-------0--------------|
|-----3---3-----3p0--0-|
|---2---------2--------|
|----------------------|
|----------------------|
|----------------------|

Can't find the answers
I've been crawling on my knees
Looking for anything
To keep me from drowning
Promises have been turned to lies
Can't even be honest inside
Now I'm running backward
Watching my life wave me goodbye

Running blind
I'm running blind
Somebody help me see I'm running blind

Searching for nothing
Wondering if I'll change
I'm trying everything
But everything still stays the same
I thought if I showed you I could fly
Wouldn't need anyone by my side
Now I'm running backward
With broken wings I know I'll die

Running blind
I'm running blind
Somebody help me see I'm running blind

Running blind
Running blind
Running blind

I can't find the answers
I've been crawling on my knees
Looking for anything
To keep me from drowning

I'm running blind
Running blind
Running blind
Running blind
Running blind
Running blind
Running blind
Running blind
Running blind
            
Hard to play? Try these video lessons and learn fast. | Correct




comments powered by Disqus
↑ Back to top | Tablatures and chords are parodies/interpretations of the original songs. You may use it for private study, scholarship, research or language learning purposes only