» » »

The End Of The Beginning Bass tabs (ver.1)

Artists:  A B C D E F G H I J K L M N O P Q R S T U V W X Y Z # 

The End Of The Beginning Bass tabs (ver.1)

God Is An Astronaut
Rating:
0/5 (0 votes)
Tabs too difficult? Try these video lessons and learn fast.
                -------------------------------------------------------------------------------
-------------------------------------------------------------------------------


Tuning: Drop-D

*Note* This song can be played in standard EADG, just be sure to play the
notes on the 4th string a step lower. The bass also switches from clean and
distorted, so keep your ears open.

Bass starts at 0:22, when the drums come to a complete fade in.

G|----------------------------------------------------------| X2
D|--4------5----------------------4-----2h4---5-------------|
A|---------------5---2----------------------------5----2----|
D|----------------------------------------------------------|

G|------------------------------------------------------| x4
D|--4-------------------------4-------------------------|
A|---------5-------------------------0-------2----------|
D|-----------------------------------------------4------|

G|----------------------------------------------------------| X2
D|--4------5----------------------4-----2h4---5-------------|
A|---------------5---2----------------------------5----2----|
D|----------------------------------------------------------|

G|----------------------------------------------------------| X2
D|--4-----------------------------4-----2h4-----------------|
A|---------------5---2----------------------------5----2----|
D|---------5----------------------------------5-------------|

No Bass from 2:23 - 2:35

G|------------------------------------------------------| x6
D|--4-------------------------4-------------------------|
A|---------5-------------------------0-------2----------|
D|-----------------------------------------------4------|

No Bass from 3:43 - 3:54

G|------------------------------------------------------|
D|--4-------------------------4-------------------------|
A|---------5-------------------------0-------2----------|
D|------------------------------------------------------|


| /  slide up
| \  slide down
| h  hammer-on
| p  pull-off
| ~  vibrato
| +  harmonic
| x  Mute note
===============================================================================
            
Tabs too difficult? Try these video lessons and learn fast.


comments powered by Disqus
↑ Back to top | Tablatures and chords are parodies/interpretations of the original songs. You may use it for private study, scholarship, research or language learning purposes only