» » »

God Is An Astronaut, Route Tabs (ver.1)

Artists:  A B C D E F G H I J K L M N O P Q R S T U V W X Y Z # 

Route Tabs (ver.1)

God Is An Astronaut Tabs
Rating:
5/5 (1 vote)
Route lessons Tabs too difficult? Try these video lessons and learn fast
                "(6)
INTRO 0.00 – 1.10
e|------12-------8-|
B|-10--------6-----|
G|-----------------|
D|-----------------|
A|-----------------|
E|-----------------|

Then this riff enters 0.38 – 1.10 (x4)
e|--------------------------------------------------------12121212-10101010-|
B|-10101010-12121212-13131313-15151515---10101010-13131313------------------|
G|--------------------------------------------------------------------------|
D|--------------------------------------------------------------------------|
A|--------------------------------------------------------------------------|
E|--------------------------------------------------------------------------|

1.10 – 1.25 (x2)
e|--------------------8---10-|
B|-10------------10----------|
G|------10---9---------------|
D|---------------------------|
A|---------------------------|
E|---------------------------|

1.25 – 1.58 (x16)
e|-8---------|
B|-----6---8-|
G|-----------|
D|-----------|
A|-----------|
E|-----------|

Enters at 1.41 – 1.58 (x2)
e|------12-------8-|
B|-10--------6-----|
G|-----------------|
D|-----------------|
A|-----------------|
E|-----------------|

1.58 – 2.12 (x2)
e|--------------------------------------------------------12121212-10101010-|
B|-10101010-12121212-13131313-15151515---10101010-13131313------------------|
G|--------------------------------------------------------------------------|
D|--------------------------------------------------------------------------|
A|--------------------------------------------------------------------------|
E|--------------------------------------------------------------------------|

1.58 – 2.12
e|------12-------8------------------|
B|-10--------6-------10---6---------|
G|----------------------------2-----|
D|--------------------------------3-|
A|----------------------------------|
E|----------------------------------|


2.12 – 2.56(x8)
e|-----------------------------------------|
B|---------------------55555555------------|
G|-77777777-77777777--------------55555555-|
D|-----------------------------------------|
A|-----------------------------------------|
E|-----------------------------------------|


2.56 – 3.06
e|------------|
B|------------|
G|-77------77-|
D|-77------77-|
A|-55------55-|
E|------------|


3.06 – 3.21 (x2)
e|---------------------------------------------121212-101010-|
B|-101010-121212-131313-151515---101010-131313---------------|
G|-----------------------------------------------------------|
D|-----------------------------------------------------------|
A|-----------------------------------------------------------|
E|-----------------------------------------------------------|

3.21 - 3.52 (x4)
e|--------------------------------------------------------12121212-10101010-|
B|-10101010-12121212-13131313-15151515---10101010-13131313------------------|
G|--------------------------------------------------------------------------|
D|--------------------------------------------------------------------------|
A|--------------------------------------------------------------------------|
E|--------------------------------------------------------------------------|

3.21 – 3.52 (x2)
e|------12-------8------------------|
B|-10--------6-------10---6---------|
G|----------------------------2-----|
D|--------------------------------3-|
A|----------------------------------|
E|----------------------------------|


OUTRO
e|---------|
B|-5~--5-6-|
G|---------|
D|---------|
A|---------|
E|---------|
"            
Submit corrections

comments powered by Disqus
↑ Back to top | God Is An Astronaut Tabs for Route. Lyrics for acoustic guitar and electric guitar. Tablatures and chords are parodies/interpretations of the original songs. You may use it for private study, scholarship, research or language learning purposes only