» » »

Radau Tabs (ver.1)

Artists:  A B C D E F G H I J K L M N O P Q R S T U V W X Y Z # 

Radau Tabs (ver.1)

God Is An Astronaut
Rating:
0/5 (0 votes)

Hard to play? Try these video lessons and learn fast.
                -------------------------------------------------------------------------------
-------------------------------------------------------------------------------

Tuning: Drop D

Pretty simple tab, a little tricky with the finger positions, but you’ll figure them out.

Enjoy!

Verse A - 0:51			X6
e|-------------------------------------------------------------------------------|
B|------3---------3------------4----------6---8----------------------------------|
G|--------0---------0--------7---7------7---7---7\\------------------------------|
D|----1-----1---1-----1----------------------------------------------------------|
A|--3---------3---------3//6-------6//8------------------------------------------|
D|-------------------------------------------------------------------------------|

Verse B - 2:09
e|-------------------------------------------------------------------------------|
B|-------------------------------------------------------------------------------|
G|----1-0-3-0-0/7-3-3\-0h3------------1-0-/7-5-3-0h3-1-0-/3----------------------|
D|-------------------------3-5------------------------------3-/5-----------------|
A|--3-------------------------------3--------------------------------------------|
D|-------------------------------------------------------------------------------|

e|-------------------------------------------------------------------------------|
B|-------------------------------------------------------------------------------|
G|----1-0-3-0-0/7-3-3\-0h3------------1-0-/7-5-3-0h3-1-0-/3----------------------|
D|-------------------------3-5------------------------------3-/5-----------------|
A|--3-------------------------------3--------------------------------------------|
D|-------------------------------------------------------------------------------|

Versa A - 3:03									X3
e|-------------------------------------------------------------------------------|
B|------3---------3------------4----------6---8----------------------------------|
G|--------0---------0--------7---7------7---7---7\\------------------------------|
D|----1-----1---1-----1----------------------------------------------------------|
A|--3---------3---------3//6-------6//8------------------------------------------|
D|-------------------------------------------------------------------------------|

Bridge, Repeat complete sequence X2 - 3:56, 4:47
e|----------------------6--------------------------------------------------------|
B|----4-----4-----4-------6\----6-----6-----6-----6------------------------------|
G|------3-----3-----3-------------8-----8-----8-----8----------------------------|
D|-------------------------------------------------------------------------------|
A|--3-----3-----3-----3-------------------8-----8--------------------------------|
D|----------------------------8-----8--------------------------------------------|

e|-------------------------------------------------------------------------------|
B|----4-----4-----4-----4-----4-----4--------------------------------------------|
G|------3-----3-----7-----7-----7-----7------------------------------------------|
D|-------------------------------------------------------------------------------|
A|--3-----3----------------------------------------------------------------------|
D|--------------6-----6-----5-----5----------------------------------------------|

e|----------------------6--------------------------------------------------------|
B|----4-----4-----4-------6\----6-----6-----6-----6------------------------------|
G|------3-----3-----3-------------8-----8-----8-----8----------------------------|
D|-------------------------------------------------------------------------------|
A|--3-----3-----3-----3-------------------8-----8--------------------------------|
D|----------------------------8-----8--------------------------------------------|

e|-------------------------------------------------------------------------------|
B|----4-----4-----4-----4-----4-----4-----4-----4--------------------------------|
G|------3-----3-----7-----7-----7-----7-----5-----5------------------------------|
D|-------------------------------------------------------------------------------|
A|--3-----3----------------------------------------------------------------------|
D|--------------6-----6-----5-----5-----3-----3----------------------------------|

Final note, hold till feedback - 5:39
e|-------------------------------------------------------------------------------|
B|-------------------------------------------------------------------------------|
G|-------------------------------------------------------------------------------|
D|-------------------------------------------------------------------------------|
A|--3----------------------------------------------------------------------------|
D|-------------------------------------------------------------------------------|


| /  slide up
| \  slide down
| h  hammer-on
| p  pull-off
| ~  vibrato
| +  harmonic
| x  Mute note
===============================================================================
            
Hard to play? Try these video lessons and learn fast. | Correct




comments powered by Disqus
↑ Back to top | Tablatures and chords are parodies/interpretations of the original songs. You may use it for private study, scholarship, research or language learning purposes only