» » »

Infinite Horizons Tabs (ver.1)

Artists:  A B C D E F G H I J K L M N O P Q R S T U V W X Y Z # 

Infinite Horizons Tabs (ver.1)

God Is An Astronaut
Rating:
5/5 (2 votes)

Tabs too difficult? Try these video lessons and learn fast.
                
-----------------------------------------------------------------
-----------------------------------------------------------------


Open to suggestions and Please Rate!!


intro rhythm 00:01
Reversed guitar on the track, the sound can be replicated by violining the following riff.
So, firstly pick the note when the volume knob is at zero then turn it up to make it 
like a violin. Can also just play normally if desired which fits in well too. Difficult 
to incorporate the timing accurately, listen to the song to get it as close as possible. 
Just be sure let those F# notes ring out (7th Fretted note on the b string).

   G                      G
e----------------------|---------------------||
b--7--7~---------------|--7--7--7~-----------||
g-(9)-----7-/-6-/-2----|-(9)--------7-/-2----||
d-(7)------------------|-(7)-----------------||
a----------------------|---------------------||
e----------------------|---------------------||

   G                      G
e----------------------|---------------------||
b--7--7~---------------|--7--7--7~-----------||
g-(9)-----7-/-6-/-2----|-(9)--------7-/-2----||
d-(7)------------------|-(7)-----------------||
a----------------------|---------------------||
e----------------------|---------------------||

   G                      G
e----------------------|---------------------|
b--7--7~---------------|--7--7--7~-----------|
g-(9)-----7-/-6-/-2----|-(9)--------7-/-2----|
d-(7)------------------|-(7)-----------------|
a----------------------|---------------------|
e----------------------|---------------------|

00:33 lead guitar fades in

e--------------------------|---------------------------|
b--------7-------------7---|---------------------------|
g-----9--------6h7---------|--6h7-----7------7-----7---|
d--7----------------7------|-------7------7-----7------|
a--------------------------|---------------------------|
e--------------------------|---------------------------|


e--------------------------|----------------------------------|
b----------7-----------7---|----------7-----------------------|
g--6h7--------------9------|--6h7---------6h7---7----7----7---|
d-------7--------7---------|-------7----------7----7----7-----|
a--------------------------|----------------------------------|
e--------------------------|----------------------------------|


e--------------------------|----------------------------------|
b----------7-----------7---|----------7-----------------------|
g--6h7--------------9------|--6h7---------6h7---7----7----7---|
d-------7--------7---------|-------7----------7----7----7-----|
a--------------------------|----------------------------------|
e--------------------------|----------------------------------|


e--------------------------|----------------------------------|
b----------7-----------7---|----------7-----------------------|
g--6h7--------------9------|--6h7---------6h7---7----7----7---|
d-------7--------7---------|-------7----------7----7----7-----|
a--------------------------|----------------------------------|
e--------------------------|----------------------------------|


00:43 - rhythm guitar

   G             (i)   (ii)        G
e-(0)--------------------------|--(0)-------------------------|
b--7--7b8r7--------------------|---7--7b8r7-------------------|
g--------------7-/-2--2(14)----|--------------2(14)-----------|
d------------------------------|----------------------2(14)---|
a------------------------------|------------------------------|
e------------------------------|------------------------------|


1:10 - continuation of rhythm guitar
                   G
e---------------|-(0)-------------------------|
b---------------|--7--7b8r7-------------------|
g----7~--6~-----|--------------7-/-2--2(14)---|
d---------------|-----------------------------|
a---------------|-----------------------------|
e---------------|-----------------------------|

01:29 - synth

e-------------------------------------------|
b-------------------------------------------|
g--11~--12~--11~--12~--14~---11-9-7----6~---|
d-------------------------------------------|
a-------------------------------------------|
e-------------------------------------------|

e-------------------------------------------|
b-------------------------------------------|
g--14~--12~--11~--9~--11~-------------------|
d--------------------------11~--12~--11~----|
a-------------------------------------------|
e-------------------------------------------|

e-------------------------------------------|
b-------------------------------------------|
g--14~--12~--11~--9~--11~-------------------|
d--------------------------11~--12~---------|
a-------------------------------------------|
e-------------------------------------------|

01:29 - lead guitar continues

e--------------------------|----------------------------|
b--------3-----------3-----|--------3-----------3-------|
g-----6-----6-----6-----6--|-----6-----6-----6-----6----|
d--4-----------4-----------|--4-----------4-------------|
a--------------------------|----------------------------|
e--------------------------|----------------------------|

e-----------------------2--|------------------------2---|
b--------3-----------3-----|---------3-----------3------|
g-----6-----6-----6--------|------6-----6-----6---------|
d--4-----------4-----------|---4-----------4------------|
a--------------------------|----------------------------|
e--------------------------|----------------------------|

e--------------------------|----------------------------|
b--------3-----------3-----|--------3-----------3-------|
g-----6-----6-----6-----6--|-----6-----6-----6-----6----|
d--4-----------4-----------|--4-----------4-------------|
a--------------------------|----------------------------|
e--------------------------|----------------------------|

e-----------------------2--|------------------------2---|
b--------3-----------3-----|---------3-----------3------|
g-----6-----6-----6--------|------6-----6-----6---------|
d--4-----------4-----------|---4-----------4------------|
a--------------------------|----------------------------|
e--------------------------|----------------------------|

e--------------------------|----------------------------|
b--------3-----------3-----|--------3-----------3-------|
g-----6-----6-----6-----6--|-----6-----6-----6-----6----|
d--4-----------4-----------|--4-----------4-------------|
a--------------------------|----------------------------|
e--------------------------|----------------------------|

e-----------------------2--|-------------------------------------------|
b--------3-----------3-----|---------3-----3/5------------3/5--3-------|
g-----6-----6-----6--------|------6-----6-------7--7/9--7--------/11~--|
d--4-----------4-----------|---4---------------------------------------|
a--------------------------|-------------------------------------------|
e--------------------------|-------------------------------------------|


e--------------------------------------||
b--------------TAB---------------------||
g------------DEDICATED2----------------||
d-----------xxEADAOINxx----------------||
a--------------------------------------||
e--------------------------------------||

Tablature Notation:
() . . . ghosts notes which may or may not be played if desired. I have
marked them with a 'G' to avoid confusion with the natural harmonics played in
the rhythm guitar.
~ . . . vibrato
|| . . . play bar twice
h . . . hammer on
/ . . . slide
b & r . . . bend and release - 7b8r7 bend 7th note up a semi tone and release
(i) . . . slow slide violined
(ii) . . here to get the desired effect play an artificial harmonic on the 14h fret
with the volume at zero and hold the note then make a sharp upward bend as you
increase the volume. Make sure not to sound the release of the bend though,
either gently mute the string or decrease the volume to zero before the release.
And it's important to hold the note to accentuate the bend and get that piercing
noise in the song. It is the same for the subsequent natural harmonics

comments but constructive criticism only please.

01.06.09
            
Tabs too difficult? Try these video lessons and learn fast.


comments powered by Disqus
↑ Back to top | Tablatures and chords are parodies/interpretations of the original songs. You may use it for private study, scholarship, research or language learning purposes only