» » »

God Is An Astronaut, Fire Flies And Empty Skies Tabs (ver.1)

Artists:  A B C D E F G H I J K L M N O P Q R S T U V W X Y Z # 

Fire Flies And Empty Skies Tabs (ver.1)

God Is An Astronaut Tabs
 Rating:
4.7/5 (14 votes)
Fire Flies And Empty Skies lessons Tabs too difficult? Try these video lessons and learn fast
1
                Album:"All Is Violent, All Is Bright"


    I noticed this site only had one God Is An Astronaut tab so I thought I would make
This is my first tab so its not 100% correct. I did not tab out Guitar II's parts for
B & C" they were too hard to hear. If I figure them out I will update this. Also you 
have to listen to the song to figure out the timing on most of this.


RIFF A (0:00-0:34)
e|-----------------------------------|-------|
B|-----------------------------------|-------|
G|-7-----9-7----------------7--------|-Three-|
D|---9-------9---9-7-9---10---9------|-Times-|
A|------------------------------9-10-|-------|
D|-----------------------------------|-------|


RIFF B (0:35-0:58)
e|-12-10------12-10--------------------------------------------|-------|
B|-------10/8-------8/10/8--88888888-1010101010101010-77777777-|-------|
G|-----------------|      |------------------------------------|-Two---|
D|------ Slide from eight to ten, hold ------------------------|-Times-|
A|------ for a count then slide back   ------------------------|-------|
D|-------------------------------------------------------------|-------|


RIFF A (0:59-1:21)
e|-----------------------------------|-------|
B|-----------------------------------|-------|
G|-7-----9-7----------------7--------|-Two---|
D|---9-------9---9-7-9---10---9------|-Times-|
A|------------------------------9-10-|-------|
D|-----------------------------------|-------|


RIFF B (1:22-1:44)
e|-12-10------12-10--------------------------------------------|-------|
B|-------10/8-------8/10/8--88888888-1010101010101010-77777777-|-------|
G|-----------------|      |------------------------------------|-Two---|
D|------ Slide from eight to ten, hold ------------------------|-Times-|
A|------ for a count then slide back   ------------------------|-------|
D|-------------------------------------------------------------|-------|


RIFF C (1:45-2:20)
e|---------------------------|-------|
B|---7-12/10/12/8-12-10-7-12-|-------|
G|-9-------------------------|-Three-|
D|---------------------------|-Times-|
A|---------------------------|-------|
D|---------------------------|-------|


RIFF A (2:21-2:55)
e|-----------------------------------|-------|
B|-----------------------------------|-------|
G|-7-----9-7----------------7--------|-Three-|
D|---9-------9---9-7-9---10---9------|-Times-|
A|------------------------------9-10-|-------|
D|-----------------------------------|-------|


RIFF B (2:56-3:17)
e|-12-10------12-10--------------------------------------------|-------|
B|-------10/8-------8/10/8--88888888-1010101010101010-77777777-|-------|
G|-----------------|      |------------------------------------|-Two---|
D|------ Slide from eight to ten, hold ------------------------|-Times-|
A|------ for a count then slide back   ------------------------|-------|
D|-------------------------------------------------------------|-------|


RiFF D (3:18-3:55)[Guitar I]
e|-------------------|-------|-----------------|-------|
B|-------------------|-------|-----------------|-------|
G|-------------------|-Eight-|-----------------|-Four--|
D|-------------------|-Times-|-----------------|-Times-|
A|-----------------5-|-Then--|---------------5-|-------|
D|-0h2-2-2-2-0h2-5---|-------|-00-222-00-2-5---|-------|

RIFF D2 (3:30-3:55)[Guitar II]
e|-------------------------------------------------------|-------|
B|-------------------------------------------------------|-------|
G|---9---11---12---11---9/11/9----9---11---12---11/12-14-|-Three-|
D|-9---9----9----9----9---------9---9----9----9----------|-Times-|
A|-------------------------------------------------------|-------|
D|-------------------------------------------------------|-------|
            
Submit corrections

comments powered by Disqus
↑ Back to top | God Is An Astronaut Tabs for Fire Flies And Empty Skies. Lyrics for acoustic guitar and electric guitar. 1 Tablatures and chords are parodies/interpretations of the original songs. You may use it for private study, scholarship, research or language learning purposes only