>
 >
Weather The Storm

Weather The Storm Guitar Tabs

God Forbid - Weather The Storm chords, tabs, tablatures, lyrics

Guitar lessons | Add/correct | Request | Top 50 tabs Artists:  A B C D E F G H I J K L M N O P Q R S T U V W X Y Z 0-9

Weather The Storm Guitar Tabs – God Forbid

CD, Sheet music, Poster

Do you like Weather The Storm? Share with your friends now
Tabs
Band- God Forbid
Song- Weather The Storm

Tuning:        1.5 steps down

Keys:
  x  - mute
 ___ - palm mute
 / \ - slide
  v  - whammy bar
  h  - hammer on
  p  - pull off
 < > - pinch harmonic
  b  - bend


INTRO:
(Gtr 1)
|-------------------------------------------------------------------------|
|-------------------------------------------------------------------------|
|-------------------------------------------------------------------------|
|-3-----3---------/7----6v------------3-----3---------/7----6v------------|
|-x-----x----------x----x-------------x-----x----------x----x-------------|
|-1--1--1--1-1-1--/5----4v------------1--1--1--1-1-1--/5----4v------------|
     _     _____                      _     _____

(Gtr 2)
|-------------------------------------------------------------------------|
|-------------------------------------------------------------------------|
|-------------------------------------------------------------------------|
|-3-----3---------/7------------------------------------------------------|
|-x-----x----------x----6v------------------------------------------------|
|-1--1--1--1-1-1--/5------------------8----------------9----8v------------|
     _     _____


RIFF A:

|-------------------------------------------------------
|-------------------------------------------------------
|-------------------------------------------------------
|-3-----3---------/7---6---6/7-2------2---------2-2-----
|-x-----x----------x---x---x---x------x---------x-x-----
|-1--1--1--1-1-1--/5---4---4/5-0--0-0-0--0-0-0--0-0-0-0-
     _     _____                  ___    _____      ___

 -------------------------------------------------------|
 -------------------------------------------------------|
 -------------------------------------------------------|
 -3-----3---------/7---6---6/7-2v-----------------------|
 -x-----x----------x---x---x---x------------------------|
 -1--1--1--1-1-1--/5---4---4/5-0v-----------------------|
     _     _____

(Gtr 1)
|-------------------------------------------------------|
|-------------------------------------------------------|
|-------------------------------------------------------|
|-3-----3---------/7---6---6/7-2------2---------2-2-----|
|-x-----x----------x---x---x---x------x---------x-x-----|
|-1--1--1--1-1-1--/5---4---4/5-0--0-0-0--0-0-0--0-0-0-0-|
     _     _____                  ___    _____      ___

(Gtr 2)
|-------------------------------------------------------|
|-------------------------------------------------------|
|-5-----5---------/9---8---8/9-4------4---------4-4-----|
|-x-----x----------x---x---x---x------x---------x-x-----|
|-3--3--3--3-3-3--/7---6---6/7-2------2---------2-2-----|
|---------------------------------0-0----0-0-0------0-0-| 2x
     _     _____                  ___    _____      ___


CHORUS:

|----------------------------------------------------|
|----------------------------------------------------|
|----------3-----------------------------------------|
|----------1-------------------------1--------1------|
|-3--3--3--1----------------3--3--3--1--------1------|
|-1--1--1-------0-0-0-0-0-0-1--1--1-------0-0----0-0-|
  ________      ____________________      ___    ___

(Gtr 1)
|----------------------------------------------------|
|----------------------------------------------------|
|----------3-----------------------------------------|
|----------1-------------------------1--------1------|
|-3--3--3--1----------------3--3--3--1--------1------|
|-1--1--1-------0-0-0-0-0-0-1--1--1-------0-0----0-0-|
  ________      ____________________      ___    ___

(Gtr 2)
|-----------------|
|-----------------|
|-----9-----------|
|-----------8-7---|
|-7-7---7-------7-|
|---------6-------| 4x


RIFF B:

|------------------------------------------------------------------|
|------------------------------------------------------------------|
|------------------------------------------------------------------|
|-7-----7---------11---10---10/11-7------7---------11---10---10/11-|
|-5--5--5--5-5-5---9----8----8/-9-5--5-5-5--5-5-5---9----8----8/9--|
|-3--3--3--3-3-3---7----6----6/-7-3--3-3-3--3-3-3---7----6----6/8--|
     _     _____                     ___    _____

(Gtr 1)
|-----------------|
|-----------------|
|-----9-----------|
|-----------8-7---|
|-7-7---7-------7-|
|---------6-------| 4x
  ___   ___

(Gtr 2)
|-------------------|
|-----12------------|
|------------10-9---|
|-------------------|
|-7-7----7--------7-|
|----------6--------| 4x
  ___    ___

|-------------------------------|
|-------------------------------|
|----------3--------------------|
|----------1--------------------|
|-3--3--3--1--------------------|
|-1--1--1-----------------------|
  ________


RIFF C:

|-----------------------------------------------|
|-----------------------------------------------|
|------6----5-----------------------------------|
|-4----4----3----4------------4-4-4-4-3---------|
|-2----2----1----2----3-3-3-3-2-2-2-2-1-------2-|
|-0--------------0----1-1-1-1-----------------0-|
                      _________________       _

(Gtr 1)
|---------------------|
|---------------------|
|------4----3---------|
|-3----x----x----2----|
|-x----2----1----x----|
|-1--------------0----| 4x

(Gtr 2)
|-----------------------------------------|
|--------------------------7----6---------|
|------4----3--------------x----x---------|
|-3----x----x----2----3----4----3----2----|
|-x----2----1----x----x--------------x----|
|-1--------------0----1--------------0----| 2x


RIFF D:

|------------------------------------------------------------------------
|------------------------------------------------------------------------
|------------------------------------------------------------------------
|------------------------------------------------------------------------
|-----------------6h9p6-------------5h8p5-------------4h6h7--------------
|-0-0-0-0-0-0-0-0-------0-0-0-0-0-0-------0-0-0-0-0-0-------4-4-4-4-<4>~-
  _______________       ___________       ___________       _______

 --------------------------------------------------------------
 --------------------------------------------------------------
 -----------------8--------------7--------------5-5-5-5-5-5-5--
 -----------------x--------------x--------------3-3-3-3-3-3-3--
 -----------------6--------------5--------------3-3-3-3-3-3-3--
 -0-0-0-0-0-0-0-0----0-0-0-0-0-0----0-0-0-0-0-0----------------
  _______________    ___________    _______________________

 ------------------------------------------------------------------------
 ------------------------------------------------------------------------
 ------------------------------------------------------------------------
 ------------------------------------------------------------------------
 -----------------6h9p6-------------5h8p5-------------4h6h7--------------
 -0-0-0-0-0-0-0-0-------0-0-0-0-0-0-------0-0-0-0-0-0-------4-4-4-4-<4>~-
  _______________       ___________       ___________       _______

 ----------------------------------------------------------------|
 ----------------------------------------------------------------|
 -----------------8--------------4-4-4-4-4-4-4-4-5-5-5-5-5-5-5-5-|
 -----------------x--------------2-2-2-2-2-2-2-2-3-3-3-3-3-3-3-3-|
 -----------------6--------------2-2-2-2-2-2-2-2-3-3-3-3-3-3-3-3-|
 -0-0-0-0-0-0-0-0----0-0-0-0-0-0---------------------------------|
  _______________    _______________   _____________   _________


RIFF E: ( a little off, but its good enough)

|---------------------------------------------
|---------------------------------------------
|-------------------2---------------------2---
|-------------------1---------------------1---
|-2-----3p2-3p2p0---0---------3p2-3p2p0---0---
|-0-0-0-----------0---0-0-0-0-----------0---0-
    ___           _   _______           _   _

 -----------------------------------------|
 -----------------------------------------|
 -2---------------2-----------------------|
 -1---------------1-------------------2---|
 -0-----2p1-2p1---0---------2p1-2p1---1---|
 ---0-0---------0---0-0-0-0---------0-0-0-| 3x, then 2x under solo
    ___         _   _______         _   _


SOLO: (it's a pretty fucked up solo, and i didn't spend much time on it)

|---------------------------15h17-19p17p15-----------------0----0--
|------------------------17----------------17~--15p0h15\12---12----
|---------------15"------------------------------------------------
|-16"----13"-------------------------------------------------------
|---------------13"------------------------------------------------
|------------------------------------------------------------------

 -/15"--13"--10"---9"---8"--7"--7~-------------------|
 -/17---15"--12"--11"--10"--9"--9~--9h11p9~----------|
 -------------------------------------------7"-<7>b--|
 ----------------------------------------------------|
 ----------------------------------------------------|
 ----------------------------------------------------|


CHORUS


RIFF B





Comments


Popular God Forbid tabs & chords
Divide My Destiny Bass Tabs
A Reflection Of The Past Tabs
Antihero Tabs
Century Fades Tabs
Chains Of Humanity Tabs
Empire Of The Gun Intro Tabs
End Of The World 1 Tabs
Gone Forever Tabs
No Sympathy Tabs
Precious Lie Intro 1 Tabs


Song lyrics



↑ Back to top | Tablatures and chords are parodies/interpretations of the original songs. You may use it for private study, scholarship, research or language learning purposes only
© 2014 AZChords.com Contact us | Privacy policy | DMCA | Add/correct tabs | Request tabs | Top 50 tabs