» » »

God Forbid, Washed Out World Tabs (ver.1)

Artists:  A B C D E F G H I J K L M N O P Q R S T U V W X Y Z # 

Washed Out World Tabs (ver.1)

God Forbid Tabs
 Rating:
4/5 (5 votes)
Washed Out World lessons Tabs too difficult? Try these video lessons and learn fast
1
                Intro/chorus

D-----------------------------|----------------------|
A-----------------------------|----------------------|
F-----------------------------|----------------------|
C-----------------------------|-5-5-5-5-5-5-5-5------|
G-0-0-0-0-0-0-0-0-0-0-0-0-0-0-|----------------------|
C-0-0-0-0-0-0-0-0-0-0-0-0-0-0-|-0-0-0-0-0-0-0-0------|


D-----------------------------|-----------------------------| Repeat all of
A-----------------------------|-----------------------------| intro
F-----------------------------|-----------------------------|
C-2-2-2-3-3-3-5-5-5-5-5-5-5-5-|-2-2-2-3-3-3-7-7-7-7-7-7-7-7-|
G-----------------------------|-----------------------------|
C-0-0-0-0-0-0-0-0-0-0-0-0-0-0-|-0-0-0-0-0-0-0-0-0-0-0-0-0-0-|

Solo

D-----------------------------------------------------|
A-----------------------------------------------------|
F-10-9---10-9-12---15-17b--14-15-17-15-14--12---------|
C--------------------------------------------12-------|
G-----------------------------------------------------|
C-----------------------------------------------------|

D-----------------------------------------------------|
A--------15-17b--15-17-17b----------------------------|
F--15-17----------------------------------------------|
C-----------------------------------------------------|
G-----------------------------------------------------|
C-----------------------------------------------------|

Verse

D-----------------------------------------------------|
A-----------------------------------------------------|
F-----------------------------------------------------|
C-------------------------------------5p0-------------|
G-3h5---3h5---6p5-----3h5---3h5---6p5-----------------|
C-----0-----0-----000-----0-----0---------------------|

D-----------------------------------------------------|
A-----------------------------------------------------|
F-----------------------------------------------------|
C-----------------------------------------------------|
G-3h5---3h5---6p5-----3h5---3h5---666-5ph-------------|
C-----0-----0-----000-----0-----0---------------------|

D-----------------------------------------------------|
A-----------------------------------------------------|
F-----------------------------------------------------|
C-------------------------------------5p0-------------|
G-3h5---3h5---6p5-----3h5---3h5---6p5-----------------|
C-----0-----0-----000-----0-----0---------------------|

D----------------------------------------------| Repeat whole verse
A----------------------------------------------|
F----------------------------------------------|
C----------------------------------------------|
G-3h5---3h5---6p5-----3h5---3h5----1----4------|
C-----0-----0-----000-----0-----0--1----4------|

verse 2

D----------------------------|--------------------------------|
A----------------------------|--------------------------------|
F----------------------------|--------------------------------|
C-------------------------5p0|--------------------------------|
G---------6p5---------6p5----|---------6p5---------666-5ph----|
C-000-000-----000-000--------|-000-000-----000-000------------|

D----------------------------|--------------------------------|
A----------------------------|--------------------------------|
F----------------------------|--------------------------------|
C-------------------------5p0|--------------------------------|
G---------6p5---------6p5----|---------6p5---------0-4-3-1----|
C-000-000-----000-000--------|-000-000-----000-000-0-4-3-1----|

some other riff
D-----------------------------| repeat riff once
A-----------------------------|
F-----------------------------|
C-----------------------------|
G---------1p0-0-0-1h3-4p3-3p1-|
C-000-000-1p0-0-0-1h3-4p3-3p1-|

pre-chorus

D-----------------------------------------------------------------|not sure
A-----------------------------------------------------------------| about
F-----------------------------------------------------------------| this part
C-----------------------------------------------------------------| and ihate
G-0-0-0-0-0-0-0-0-5-5-0-0-0-0-0-0-0-0-7-0-0-0-0-0-0-0-0-3-5-7-----| it
C-0-0-0-0-0-0-0-0-5-5-0-0-0-0-0-0-0-0-7-0-0-0-0-0-0-0-0-3-5-7-----|


D-----------------------------|----------------------|
A-----------------------------|----------------------|
F-----------------------------|----------------------|
C-----------------------------|-5-5-5-5-5-5-5-5------|
G-0-0-0-0-0-0-0-0-0-0-0-0-0-0-|----------------------|
C-0-0-0-0-0-0-0-0-0-0-0-0-0-0-|-0-0-0-0-0-0-0-0------|


D-----------------------------|-----------------------------|  repeat
A-----------------------------|-----------------------------|
F-----------------------------|-----------------------------|
C-2-2-2-3-3-3-5-5-5-5-5-5-5-5-|-2-2-2-3-3-3-7-7-7-7-7-7-7-7-|
G-----------------------------|-----------------------------|
C-0-0-0-0-0-0-0-0-0-0-0-0-0-0-|-0-0-0-0-0-0-0-0-0-0-0-0-0-0-|

D-----------------------------------------------------| Play over chorus 2nd
A-----------------------------------------------------| time.
F--------2ph----------------2-------------------------|
C--0-2-3------3-2-0-2-0-2-3--3-2-3--------------------| play twice
G-----------------------------------------------------|
C-----------------------------------------------------|

D------------------------------------------------------|
A------------------------------------------------------|
F--------0------------------0--------------------------|
C--0-2-3------3-2-0-2-0-2-3--3-2-3---------------------| play twice
G------------------------------------------------------|
C------------------------------------------------------|

then

D-----------------------------------------------------|
A-----------------------------------------------------|
F--------2ph----------------2-------------------------|
C--0-2-3------3-2-0-2-0-2-3--3------------------------|
G------------------------------12/--------------------|
C------------------------------12/--------------------|

D----------------------------|--------------------------------|
A----------------------------|--------------------------------|
F----------------------------|--------------------------------|
C-------------------------5p0|--------------------------------|
G---------6p5---------6p5----|---------6p5---------666-5ph----|
C-000-000-----000-000--------|-000-000-----000-000------------|

D----------------------------|--------------------------------|
A----------------------------|--------------------------------|
F----------------------------|--------------------------------|
C-------------------------5p0|--------------------------------|
G---------6p5---------6p5----|---------6p5---------0-4-3-1----|
C-000-000-----000-000--------|-000-000-----000-000-0-4-3-1----|

some other riff
D-----------------------------| repeat riff once
A-----------------------------|
F-----------------------------|
C-----------------------------|
G---------1p0-0-0-1h3-4p3-3p1-|
C-000-000-1p0-0-0-1h3-4p3-3p1-|

pre-chorus

D-----------------------------------------------------------------|
A-----------------------------------------------------------------| 
F-----------------------------------------------------------------| 
C-----------------------------------------------------------------| 
G-0-0-0-0-0-0-0-0-5-5-0-0-0-0-0-0-0-0-7-0-0-0-0-0-0-0-0-3-5-7-----| 
C-0-0-0-0-0-0-0-0-5-5-0-0-0-0-0-0-0-0-7-0-0-0-0-0-0-0-0-3-5-7-----|


D-----------------------------|----------------------|
A-----------------------------|----------------------|
F-----------------------------|----------------------|
C-----------------------------|-5-5-5-5-5-5-5-5------|
G-0-0-0-0-0-0-0-0-0-0-0-0-0-0-|----------------------|
C-0-0-0-0-0-0-0-0-0-0-0-0-0-0-|-0-0-0-0-0-0-0-0------|


D-----------------------------|-----------------------------|  repeat
A-----------------------------|-----------------------------|
F-----------------------------|-----------------------------|
C-2-2-2-3-3-3-5-5-5-5-5-5-5-5-|-2-2-2-3-3-3-7-7-7-7-7-7-7-7-|
G-----------------------------|-----------------------------|
C-0-0-0-0-0-0-0-0-0-0-0-0-0-0-|-0-0-0-0-0-0-0-0-0-0-0-0-0-0-|

D-----------------------------------------------------|
A-----------------------------------------------------|
F-----------14----------------------14----------------|2x
C--12-14-15----15-14-12-14-12-14-15----15-14-15-------|
G-----------------------------------------------------|
C-----------------------------------------------------|


D-----------------------------------------------------|
A-----------------------------------------------------|
F-----------12----------------------12----------------|
C--12-14-15----15-14-12-14-12-14-15----15-14-15-------|2x
G-----------------------------------------------------|
C-----------------------------------------------------|

Slow part

D-1---------------------------------------------------| This is far from
A-3----1---------3-1----3---5-------------------------| perfect but it
F-2----0-------2--------5---7-------------------------| fits
C-0----2-----0----------3---5-------------------------|
G------3----------------------------------------------|
C-----------------------------------------------------|

lead over slow part

D-----------------------------------------------------|
A--5-6-8---5-6-8-8b--6-5h6p5--------------------------|
F----------------------------7-6-2--2-3-5-5b-7~-------|
C-----------------------------------------------------|
G-----------------------------------------------------|
C-----------------------------------------------------|

D---------------------------------|
A---------------------------------|
F---------------------------------|
C---------------------------------|
G-6-0-0-0-0-0-00-0-6-0-0-0-0-00-0-|
C-6-0-0-0-0-0-00-0-6-0-0-0-0-00-0-|


D-------------------------------------------------------|
A-------------------------------------------------------|
F-------------------------------------------------------|
C-------------------------------------------------------|
G-6-0-00-00-00-00-00-00-00-0-6-0-00-00-00-00-00-00-00-0-|
C-6-0-00-00-00-00-00-00-00-0-6-0-00-00-00-00-00-00-00-0-|


D---------------------------|
A---------------------------|
F---------------------------|4x
C---------------------------|
G-6-0-000-0--0-000-0--0-0-0-|
C-6-0-000-0--0-000-0--0-0-0-|

D---------------------------------|
A---------------------------------|
F---------------------------------|
C---------------------------------|
G-6-0-0-0-0-0-00-0-6-0-0-0-0-00-0-|
C-6-0-0-0-0-0-00-0-6-0-0-0-0-00-0-|


D---------------------------|
A---------------------------|
F---------------------------|4x
C---------------------------|
G-6-0-000-0--0-000-0--0-0-0-|
C-6-0-000-0--0-000-0--0-0-0-|

D---------------------------------|
A---------------------------------|
F---------------------------------|
C---------------------------------|
G-6-0-0-0-0-0-00-0-6-0-0-0-0-00-0-|
C-6-0-0-0-0-0-00-0-6-0-0-0-0-00-0-|

D-----------------------------------------------------------------|
A-----------------------------------------------------------------|
F-----------------------------------------------------------------|
C-8-8-8-8-8-8-8-8-8-8-8-8-8-8-8-8-8-8-8-8-8-8-8-8-8-8-8-8-8-8-8-8-|
G-----------------------------------------------------------------|
C-6-6-6-6-6-6-6-6-6-6-6-6-6-6-6-6-6-6-6-6-6-6-6-6-6-6-6-6-6-6-6-6-|

D-----------------------------------------------------|
A-----------------------------------------------------|  Play till end
F-7-------10--9---12---14-----------------------------|
C-----------------------------------------------------|
G-5-------8---7---10---12-----------------------------|
C-----------------------------------------------------|

This song is fun as f**k to play please rate it this is my first tab so its probably
weird but its atleast 80% right and im pretty sure your not gunna find this tab
anywhere else, ive tried so happy shredding!
            
Submit corrections

comments powered by Disqus
↑ Back to top | God Forbid Tabs for Washed Out World. Lyrics for acoustic guitar and electric guitar. 1 Tablatures and chords are parodies/interpretations of the original songs. You may use it for private study, scholarship, research or language learning purposes only