» » »

Precious Lie Tabs (ver.4)

Artists:  A B C D E F G H I J K L M N O P Q R S T U V W X Y Z # 

Precious Lie Tabs (ver.4)

God Forbid
Rating:
0/5 (0 votes)

Hard to play? Try these video lessons and learn fast.
                (Intro1)
ummm, this isnt really right, but the other day i listened to the song and since its so 
i made up my own version of the intro, then checked it on this site, and it was really 
so i decided i should post it just for the hell of it. hope you foo's like it.

    Intro (slightly distorted w/ reverb)
E|-------------------------------------------------------------------------|
B|-------------------------------------------------------------------------|
G|--7--7--7--7/9-9/10-10-10-10\9-9-9---9--9--9--9/10-10/12-12-12-12\10-----|
D|--x--x--x--x-x-x-x--x--x--x-x--x-x---x--x--x--x-x--x-x---x--x--x--x------|
A|--5--5--5--5/7-7/8--8--8--8\7--7-7---7--7--7--7/8/-8/10--10-10-10\8------|
E|-------------------------------------------------------------------------|

   Intro (slightly distorted w/ reverb)
E|-------------------------------------------------------------------------|
B|-------------------------------------------------------------------------|
G|--10-10---3-3-3-3--xx-x-x3-----------------------------------------------|
D|--x--x----x-x-x-x--xx-x-xx-5-5-5/7-7-7-7-7-7-----------------------------|
A|--8--8----1-1-1-1--xx-x-x1-x-x-x-x-x-x-x-x-x-----------------------------|
E|---------------------------3-3-3/5-5-5-5-5-5-----------------------------|
            
Hard to play? Try these video lessons and learn fast. | Correct




comments powered by Disqus
↑ Back to top | Tablatures and chords are parodies/interpretations of the original songs. You may use it for private study, scholarship, research or language learning purposes only