>
 >
No Sympathy

No Sympathy Guitar Tabs

God Forbid - No Sympathy chords, tabs, tablatures, lyrics

Guitar lessons | Add/correct | Request | Top 50 tabs Artists:  A B C D E F G H I J K L M N O P Q R S T U V W X Y Z 0-9

No Sympathy Guitar Tabs – God Forbid

CD, Sheet music, Poster

Do you like No Sympathy? Share with your friends now
Tabs
Band- God Forbid
Song- No Sympathy

Tune to D : DGCFAD

.  - palm mute           /  - slide up to
\  - slide down to       ~  - vibrato
h  - hammer on           b  - Bend
p  - pull off            Suffixes for bend
t  - tap                 f  - full bend    h - half bend
ph - pinched harmonic    q  - quarter bend t - tap bend
*  - see comment         ^  - Hold bend    r release bend
x  - Stuccatto           ~  - vibrato bend
,  - slight palm mute    () - ghost note, sustained note
"  - tremolo note        <> - Trill

(intro) - 4x                                               [Gt. 1 & 2]
D--------------------------------------------------------------------||
A--------------------------------------------------------------------||
F--------------------------------------------------------------------||
C--2-2-2---7p5--------------------2-2-2---7p5------------9--7--3ph---||
G--2-2-2--------7--7/9-9--7-5-8---2-2-2--------7--7/9-9--------------||
D--0-0-0--------------------------0-0-0------------------------------||
   . . .                          . . .   

(Verse)                                                     [Gt. 1 & 2]
D---------------------------------------------------------------------|
A---------------------------------------------------------------------|
F---------------------------------------------------------------------|
C---------------------------------------------------7---5-------------|
G---------7---5---8---10"--9"-----------7---5---8---5---3-------------|
D--0-0-0----0---0-----8-"--7"----0-0-0----0---0-----------------------|
   . . .    .   .                . . .    .   .

D--------------------------------------------------------------------||
A--------------------------------------------------------------------||
F--------------------------------------------------------------------||
C---------------------------------------------------7---8------------||
G---------7---5---8---10"--9"-----------7---5---8---5---6------------||
D--0-0-0----0---0-----8-"--7"----0-0-0----0---0----------------------||
   . . .    .   .                . . .    .   .

(Chorus)- 2x                                               [Gt. 1 & 2]
D--------------------------------------------------------------------||
A--------------------------------------------------------------------||
F--------------------------------------------------------------------||
C--------2--8--7------------------------------------8^^^^------------||
G--------2--6--5--5---6------6------6------6-------------------------||
D-0-0-0--0--------3-----000----000----000----000---------------------||
  . . .  .              ...    ...    ...    ...

2x                                                             [Gt. 1]
D--------------------------------------------------------------------||
A--------------------------------------------------------------------||
F--------------------------------------------------------------------||
C--2-2-2---7p5--------------------2-2-2---7p5------------9--7--3ph---||
G--2-2-2--------7--7/9-9--7-5-8---2-2-2--------7--7/9-9--------------||
D--0-0-0--------------------------0-0-0------------------------------||
   . .                            . . .
                                                           [Gt. 1 & 2]
D---------------------------------------------------------------------|
A---------------------------------------------------------------------|
F---------------------------------------------------------------------|
C---------------------------------------------------7---5-------------|
G---------7---5---8---10"--9"-----------7---5---8---5---3-------------|
D--0-0-0----0---0-----8-"--7"----0-0-0----0---0-----------------------|
   . . .    .   .                . . .    .   .  

D----------------------------------------------------------------------||
A----------------------------------------------------------------------||
F----------------------------------------------------------------------||
C---------------------------------------------------7---8--------------||
G---------7---5---8---10"--9"-----------7---5---8---5---6--------------||
D--0-0-0----0---0-----8-"--7"----0-0-0----0---0------------------------||
   . . .    .   .                . . .    .   .

2x                                                            [Gt. 1 & 2]
D-----------------------------------------------------------------------|
A-----------------------------------------------------------------------|
F-----------------------------------------------------------------------|
C--222--2-2--2-2-2-2-2-2-2-2-2----222--5--22--2-2-2-2-2--7-5------------|
G--222--2-2--2-2-2-2-2-2-2-2-2----222--3--22--2-2-2-2-2--5-3-5----------|
D--000--0-0--0-0-0-0-0-0-0-0-0----000-----00--0-0-0-0-0------3----------|
   ...  . .  . . . . . . . . .    ...     ..  . . . . . 

D-----------------------------------------------------------------------|
A-----------------------------------------------------------------------|
F-----------------------------------------------------------------------|
C--222--2-2--2-2-2-2-2-2-2-2-2----222--5-22--5-------7------------------|
G--222--2-2--2-2-2-2-2-2-2-2-2----222--3-22--3-----5-5------------------|
D--000--0-0--0-0-0-0-0-0-0-0-0----000----00----0-0-3--------------------|
   ...  . .  . . . . . . . . .    ...    ..    . .

D-----------------------------------------------------------------------|
A-----------------------------------------------------------------------|
F-----------------------------------------------------------------------|
C--222--2---------2-2-2-2-2-2-2-2-2----222--5-22--5-------7-------------|
G--222--2---------2-2-2-2-2-2-2-2-2----222--3-22--3-----5-5-------------|
D--000--0---------0-0-0-0-0-0-0-0-0----000----00----0-0-3---------------|
   ...  .         . . . . . . . . .    ...    ..    . .

D-----------------------------------------------------------------------|
A-----------------------------------------------------------------------|
F-----------------------------------------------------------------------|
C--222--2-2--2-2-2-2-2-2-2-2-2----222--5-22--5-------7------------------|
G--222--2-2--2-2-2-2-2-2-2-2-2----222--3-22--3-----5-5------------------|
D--000--0-0--0-0-0-0-0-0-0-0-0----000----00----0-0-3--------------------|
   ...  . .  . . . . . . . . .    ...    ..    . .
(Outro)                                                         
D----------------------------------------|
A----------------------------------------|
F--14~-------10-------------15\14--------|
C-----------------14~--------------------|
G----------------------------------------|
D----------------------------------------|





Comments


Popular God Forbid tabs & chords
Antihero Bass Tabs
Go Your Own Way Bass Tabs
Constitution Of Treason Intro Tabs
Empire Of The Gun Tabs
End Of The World 1 Tabs
End Of The World Intro 1 Tabs
End Of The World Intro 3 Tabs
Lonely Dead Intro Tabs
Madman Tabs
Precious Lie 1 Tabs


Song lyrics



↑ Back to top | Tablatures and chords are parodies/interpretations of the original songs. You may use it for private study, scholarship, research or language learning purposes only
© 2014 AZChords.com Contact us | Privacy policy | DMCA | Add/correct tabs | Request tabs | Top 50 tabs