» » »

God Forbid, Lonely Dead Tabs (ver.2)

Artists:  A B C D E F G H I J K L M N O P Q R S T U V W X Y Z # 

Lonely Dead Tabs (ver.2)

God Forbid Tabs
 Rating:
4.4/5 (7 votes)
Lonely Dead lessons Tabs too difficult? Try these video lessons and learn fast
1
                (Intro)
----------------------------------------------------------------------------
                The Lonely Dead - God Forbid                                
-----------------------------------------------------------------------------

Tuning:C-G-C-F-A-D
I know i'm missing some parts, but this is good enough
D|--------------------------------------------------------------------------|
A|--------------------------------------------------------------------------|
F|--------------------------------------------------------------------------|
C|--------------------------------------------------------------------------|
G|-5p-3-------------5p-3---------------5p-3------------5p-3------------5p-3-|
C|-------000000000----------000000000---------000000000-------00000000------|
         xxxxxxxxx          xxxxxxxxx         xxxxxxxxx       xxxxxxxx
D|--------------------------------------------------------------------------|
A|--------------------------------------------------------------------------|
F|--------------------------------------------------------------------------|
C|--------------------------------------------------------------------------|
G|-3h-6------------3h-6----------------3h-6--------------3h-6-----------3h-6|
C|-------000000000---------000000000----------0000000000--------00000000----|
         xxxxxxxxx         xxxxxxxxx          xxxxxxxxxx        xxxxxxxx
D|--------------------------------------------------------------------------|
A|--------------------------------------------------------------------------|
F|--------------------------------------------------------------------------|
C|--------------------------------------------------------------------------|
G|-5p-3------------5p-3-------------5p-3---------------5p-3-------------5p-3|
C|------3333333333-------333333333--------33333333333--------3333333333-----|
        xxxxxxxxxx       xxxxxxxxx        xxxxxxxxxxx        xxxxxxxxxx
D|--------------------------------------------------------------------------|
A|--------------------------------------------------------------------------|
F|--------------------------------------------------------------------------|
C|--------------------------------------------------------------------------|
G|-3h-6------------3h-6-------------3h-6---------------3h-6------------3h-6-|
C|------5555555555-------555555555--------55555555555--------555555555------|
   1:19 xxxxxxxxxx       xxxxxxxxx        xxxxxxxxxxx        xxxxxxxxx 
    This is the cool part....
D|--------------------------------------------------------------------------|
A|--------------------------------------------------------------------------|
F|--------------------------------------------------------------------------|
C|--------------------------------------------------------------------------|
G|--/6-9--11b^--/6-9-11-11b^-9-11----/5-8--10b^--/5-8--10-10b^-b-8-10-------|
C|--------------------------------------------------------------------------|

D|--------------------------------------------------------------------------|
A|--------------------------------------------------------------------------|
F|--------------------------------------------------------------------------|
C|-----------------------------------------7------7-------7--------7b^--7-9-|
G|---/4-8--10b^--/4-8--10-10b^-8-10----7-9----7-9----7-9------7-9-----------|
C|--------------------------------------------------------------------------|
   Intro Solo
D|---------------------------------------------------------------10b^--12-10|
A|-----------------------------12--------12--12-10-11-12-10-11--------------|
F|--12b--10-12~--12b^-10-12b-------12b--------------------------------------|
C|--------------------------------------------------------------------------|
G|--------------------------------------------------------------------------|
C|--------------------------------------------------------------------------|

D|---1415-14-15-1415b^-1415b^-----------------------------------------------|
A|--------------------------------------------------------------------------|
F|--------------------------------------------------------------------------|
C|--------------------------------------------------------------------------|
G|--------------------------------------------------------------------------|
C|--------------------------------------------------------------------------|


| /  slide up
| \  slide down
| h  hammer-on
| p  pull-off
| ~  vibrato
| +  harmonic
| x  Mute note
| b  Bend, ^ bend up and then down
=============================================================================
            
Submit corrections

comments powered by Disqus
↑ Back to top | God Forbid Tabs for Lonely Dead. Lyrics for acoustic guitar and electric guitar. 1 Tablatures and chords are parodies/interpretations of the original songs. You may use it for private study, scholarship, research or language learning purposes only