» » »

God Forbid, Lonely Dead Tabs (ver.1)

Artists:  A B C D E F G H I J K L M N O P Q R S T U V W X Y Z # 

Lonely Dead Tabs (ver.1)

God Forbid Tabs
Rating:
5/5 (2 votes)
Lonely Dead lessons Tabs too difficult? Try these video lessons and learn fast
                (Intro)
Tuning:C-G-C-F-A-D

Fade in....
Guitar 1
D|--------------------------------------------------------------------------|
A|--------------------------------------------------------------------------|
F|--------------------------------------------------------------------------|
C|---0~---------------------------------------------------------------------|
G|---0~---------------------------------------------------------------------|
C|---0~---------------------------------------------------------------------|
Guitar 2
D|--------------------------------------------------------------------------|
A|--------------------------------------------------------------------------|
F|--------------------------------------------------------------------------|
C|--------------------------------------------------------------------------|
G|------3--5------3-6------3-5------3-5-6-6-6-3-----------------(all this X2|
C|---0---------0--------0--------0------------------------------------------|
Guitar 1
D|--------------------------------------------------------------------------|
A|--------------------------------------------------------------------------|
F|--------------------------------------------------------------------------|
C|-------8~---------------------------3~------------------------------------|
G|-------6~---------------------------1~------------------------------------|
C|--------------------------------------------------------------------------|
Guitar 2
D|--------------------------------------------------------------------------|
A|--------------------------------------------------------------------------|
F|--------------------------------------------------------------------------|
C|--------------------------------------------------------------------------|
G|---666-33333--666-33333--------------------6----3----3-6~-----------------|
C|---------------------------88888888--------6-6--3-3-6---------------------|

Both Guitars
D|--------------------------------------------------------------------------|
A|--------------------------------------------------------------------------|
F|--------------------------------------------------------------------------|
C|--------------------------------------------------------------------------|
G|-5p-3-------------5p-3---------------5p-3------------5p-3------------5p-3-|
C|-------000000000----------000000000---------000000000-------00000000------|

D|--------------------------------------------------------------------------|
A|--------------------------------------------------------------------------|
F|--------------------------------------------------------------------------|
C|--------------------------------------------------------------------------|
G|-3h-6------------3h-6----------------3h-6--------------3h-6-----------3h-6|
C|-------000000000---------000000000----------0000000000--------00000000----|

D|--------------------------------------------------------------------------|
A|--------------------------------------------------------------------------|
F|--------------------------------------------------------------------------|
C|--------------------------------------------------------------------------|
G|-5p-3------------5p-3-------------5p-3---------------5p-3-------------5p-3|
C|------3333333333-------333333333--------33333333333--------3333333333-----|

D|--------------------------------------------------------------------------|
A|--------------------------------------------------------------------------|
F|--------------------------------------------------------------------------|
C|--------------------------------------------------------------------------|
G|-3h-6------------3h-6-------------3h-6---------------3h-6------------3h-6-|
C|------5555555555-------555555555--------55555555555--------555555555------|

End First time Both guitars
D|---------------------------------|
A|---------------------------------|
F|---------------------------------|
C|---------------------------------|
G|--6----3-----3-6~----------------|
C|--6-6--3-3-6---------------------|

Second time Guitar 2 Goes
D|---------------------------------|
A|---------------------------------|
F|---------------------------------|
C|---------------------------------|
G|--6~-----3~----------------------|
C|--6~-----3~----------------------| Then into above again.

Guitar 1

G|5555555555-77-88-1010-7777777777-88-1010-1212-8888888888-1010-1212-1313-101010101010101010101010101010101010|


Guitar 2
Sorry dont know yet

Both Guitars
D|-----------------------------------------------|
A|-----------------------------------------------|
F|-----------------------------------------------|
C|---------3---5/7-5---3---3-5-5(B)-3-5----------|
G|------/5-----------5---5-----------------------|
C|---0-------0-----------------------------------|

D|-----------------------------------------------|
A|-----------------------------------------------|
F|-----------------------------------------------|
C|---------3---5/7-5---3---3-5-5(B)-3-5----------|
G|------/4-----------4---4-----------------------|
C|---0-------0-----------------------------------|

D|-----------------------------------------------|
A|-----------------------------------------------|
F|-----------------------------------------------|
C|---------3---5/7-5---3---3-5-5(B)-3-5----------|
G|------/3-----------3---3-----------------------|
C|---0-------0-----------------------------------|

Guitar 1

D|-----------------------------------------------|
A|-----------------------------------------------|
F|-----------------------------------------------|
C|------7-8---7-8---7-8---7-8--8(b)--7-8---------|
G|----7-----7-----7-----7------------------------|
C|-----------------------------------------------|


Guitar 1

D|-----------------------------------------------|
A|-----------------------------------------------|
F|-----------------------------------------------|
C|-----------------------------------------------|
G|----8-10-11--8-10-11--8-10-11--8-10-11-8(b)-7-8|
C|-----------------------------------------------|


Timing isnt perfect, but it all seems right to me.
Its all ive Worked out so far, what do you think??
            

comments powered by Disqus
↑ Back to top | God Forbid Tabs for Lonely Dead. Lyrics for acoustic guitar and electric guitar. Tablatures and chords are parodies/interpretations of the original songs. You may use it for private study, scholarship, research or language learning purposes only