>
 >
Living Nightmare

Living Nightmare Guitar Tabs

God Forbid - Living Nightmare chords, tabs, tablatures, lyrics

Guitar lessons | Add/correct | Request | Top 50 tabs Artists:  A B C D E F G H I J K L M N O P Q R S T U V W X Y Z 0-9

Living Nightmare Guitar Tabs – God Forbid

CD, Sheet music, Poster

Do you like Living Nightmare? Share with your friends now
Tabs
-------------------------------------------------------------------------------
                             God Forbid - Living Nightmare
-------------------------------------------------------------------------------





Tuning: D standard


Riff 1
d|---------------------------------------------------------------------------|
A|---------------------------------------------------------------------------|
F|---------------------------------------------------------------------------|
C|---------------------------------------------------------------------------|
G|----------10-8-7-8---------5-7-8-5-7-------10-8-7-8ph~--------8--5---------|
D|--0-0-000----------0-0-000-----------0-000--------------0-000-6--3---------|

d|---------------------------------------------------------------------------|
A|---------------------------------------------------------------------------|
F|------------------------------------------------------------10-------------|
C|------------------------------------------------------------10-------------|
G|--7-------10-8-7-8---------5-7-8-5--5-------7-------8-------8--12\---------|
D|--0-0-000----------0-0-000----------3-3-333-5-5-555-6-666------12\---------|


Riff 1 Harmony
d|---------------------------------------------------------------------------|
A|---------------------------------------------------------------------------|
F|---------------------------------------------------------------------------|
C|--5-------9-7-5-7----------4-5-7-4-5-------9-7-5-7~------------------------|
G|----------------------------------------------------------8--5-------------|
D|----0-000----------0-0-000-----------0-000----------0-000-6--3-------------|

d|---------------------------------------------------------------------------|
A|---------------------------------------------------------------------------|
F|----------------------------------------------------------10---------------|
C|--5-------9-7-5-7---------4-5-7-4-------------------------10--8------------|
G|-----------------------------------5-------7-------8------8---8------------|
D|---0-000----------0-0-000----------3-3-333-5-5-555-6-666------6------------|


Riff 2 Guitar 1
d|---------------------------------------------------------------------------|
A|---------------------------------------------------------------------------|
F|---------------------------------------------------------------------------|
C|---------------------------------------------------------------------------|
G|----------7-------8-------7-------8--------8-------8-10-8-7-8h10p7-6~------|
D|--5-5-555---5-555---5-555---5-555-6-6-666----6-666-------------------------|
                                   pm pm pm   pm pm  
Guitar 2
d|---------------------------------------------------------------------------|
A|---------------------------------------------------------------------------|
F|---------------------------------------------------------------------------|
C|---------------------------------------------------------------------------|
G|----------7-------8-------787p5p0--8--------8------------------------------|
D|--5-5-555---5-555---5-555----------6-6-666----6-666------------------------|

Riff 3
d|---------------------------------------------------------------------------|
A|---------------------------------------------------------------------------|
F|---------------------------------------------------------------------------|
C|---------------------------------------------------------------------------|
G|-----------------8\-----------8\------------8\----------666----------------|
D|---000-000-000-0-6\-000-000-0-6\--000-000-0-6\--000-888--------------------|
      pm  pm  pm pm    pm  pm pm     pm  pm pm    pm                

d|---------------------------------------------------------------------------|
A|---------------------------------------------------------------------------|
F|---------------------------------------------------------------------------|
C|---------------------------------------------------------------------------|
G|-----------------8\-----------8\------------8\------11~--------------------|
D|---000-000-000-0-6\-000-000-0-6\--000-000-0-6\--000----55~-----------------|
      pm  pm  pm pm    pm  pm pm     pm  pm pm    pm        

Final bit of verse

d|---------------------------------------------------------------------------|
A|---------------------------------------------------------------------------|
F|----------------------------------------------------------8-8--------------|
C|------------------------------------------------0---10-10------------------|
G|-----------------8\-----------8\------------8\------------6-6--------------|
D|---000-000-000-0-6\-000-000-0-6\--000-000-0-6\--000-8--8-------------------|
      pm  pm  pm pm    pm  pm pm     pm  pm pm    pm                




d|---------------------------------------------------------------------------|
A|---------------------------------------------------------------------------|
F|---------------------------------------------------------------------------|
C|---------------------------------------------------------------------------|
G|-----------------8\-----------8\------------8\-----5-----------------------|
D|---000-000-000-0-6\-000-000-0-6\--000-000-0-6\--/5---5-666-555-------------|
                                                         pm  pm

Riff 4
d|---------------------------------------------------------------------------|
A|---------------------------------------------------------------------------|
F|---------------------------------------------------------------------------|
C|---------------------------------------------------------------------------|
G|------------------------------------------------------8-----7-----3--------|
D|--222-222-555-333-333-222-222-5ph~---222-222-555-333--6-0-0-5-0-0-1--------|


d|---------------------------------------------------------------------------|
A|---------------------------------------------------------------------------|
F|---------------------------------------------------------------------------|
C|---------------------------------------------------------------------------|
G|------------------------------------------------------8-----7-----3-2------|
D|--222-222-555-333-333-222-222-5ph~---222-222-555-333--6-0-0-5-0-0-1-0------|

d|------------------|
A|------------------|
F|------------------|
c|------------------|
G|------------------|
D|---65305301-------|




Chorus

Guitar 1
d|---------------------------------------------------------------------------|
A|---8-8-8-8-8---------------------------------------------------------------|
F|---9-9-9-9-9----------9-9-9/-12-12-12-12--9-9-9-9-9---------8-8-8/11-11-11-|
C|---9-9-9-9-9----------9-9-9---------------9-9-9-9-9------------------------|
G|---7-7-7-7-7----------7-7-7/-10-10-10-10--7-7-7-7-7---------6-6-6/9--9---9-|
D|--------------0-0-0-0---------------------7-7-7-7-7-0-0-0-0----------------|


d|---------------------------------------------------------------------------|
A|---------------------------------------------------------------------------|
F|--12-12-12-12-12---------12-12-12/-16-16-16-16--12-12-12-12-12-------------|
C|---------------------------------------------------------------------------|
G|--10-10-10-10-10---------10-10-10/-14-14-14-14--10-10-10-10-10-------------|
D|-----------------0-0-0-0---------------------------------------0-0-0-0-----|


d|----------------------------------------------------------------------------|
A|----------------------------------------------------------------------------|
F|------11-11-11-14-14-14-14--------------------------------------------------|
C|----------------------------------------------------------------------------|
G|------9--9--9--12-12-12-12--------------------------------------------------|
D|----------------------------------------------------------------------------|


Guitar 2 X 2
d|---------------------------------------------------------------------------|
A|---------------------------------------------------------------------------|
F|---9-9-9-9-9----------9-9-9----9-9-9-9--9-9-9-9-9---------9-9-9--9-9-9-9---|
C|---9-9-9-9-9----------9-9-9----9-9-9-9--9-9-9-9-9---------9-9-9--9-9-9-9---|
G|---7-7-7-7-7----------7-7-7-x--7-7-7-7--7-7-7-7-7---------7-7-7--7-7-7-7---|
D|---7-7-7-7-7--0-0-0-0-7-7-7-x--7-7-7-7--7-7-7-7-7-0-0-0-0-7-7-7--7-7-7-7---|


Both guitars
Riff 6
d|---------------------------------------------------------------------------|
A|---------------------------------------------------------------------------|
F|--12-----12----12---12/14--14-14-14----------------------------------------|
C|--12-----12----12---12/14--14-14-14----------------------------------------|
G|--10-----10----10---10/12--12-12-12----------------------------------------|
D|--10-----10----10---10/12--12-12-12----------------------------------------|


Repeat Riff 1 w/ Harmony for first part

Then play this

d|---------------------------------------------------------------------------|
A|---------------------------------------------------------------------------|
F|----------------------------------------------------------8-8--------------|
C|----------------------------------------------------10-10------------------|
G|-----------------8\-----------8\------------8\------------6-6--------------|
D|---000-000-000-0-6\-000-000-0-6\--000-000-0-6\--000-8--8-------------------|
      pm  pm  pm pm    pm  pm pm     pm  pm pm    pm                



d|---------------------------------------------------------------------------|
A|---------------------------------------------------------------------------|
F|---------------------------------------------------------------------------|
C|---------------------------------------------------------------------------|
G|-----------------8\-----------8\------------8\-----5-----------------------|
D|---000-000-000-0-6\-000-000-0-6\--000-000-0-6\--/5---5-666-555-------------|


Now repeat riff 4 twice with this to end
d|------------------|
A|------------------|
F|------------------|
C|------------------|
G|------------------|
D|---666033301-------|


Repeat chorus
Repeat riff 6 like this
d|---------------------------------------------------------------------------|
A|---------12----12---12-----------------------------------------------------|
F|--12-----12----12---12/14--14-14-14----------------------------------------|
C|--12-----12----12---12/14--14-14-14----------------------------------------|
G|--10-----10----10---10/12--12-12-12----------------------------------------|
D|--10-----10----10---10/12--12-12-12----------------------------------------|


Then repeat chorus riff with new lead, listen for timing

d|---------------------------------------------------------------------------|
A|---------------------------------------------------------------------------|
F|---16--16-16-16-16-16-16-16-16-16\14-14-14-14-14-14-12-12-12-12-12-12-12-12|
C|---------------------------------------------------------------------------|
G|---14--14-14-14-14-14-14-14-14-14\12-12-12-12-12-12-10-10-10-10-10-10-10-10|
D|---------------------------------------------------------------------------|

d|---------------------------|
A|---------------------------|
F|-12-11/-12\-11/-12\-11/14~-|
C|---------------------------|
G|-10-9/--10\--9/-10\-9------|
D|---------------------------|


Repeat riff 6 with this above
d|---------------------------------------------------------------------------|
A|---------------------------------------------------------------------------|
F|---9---/-11----11---/12--12--12/14-----------------------------------------|
C|---------------------------------------------------------------------------|
G|---7--/--9-----9----/10--10--10/12-----------------------------------------|
D|---------------------------------------------------------------------------|


d|---------------------------------------------------------------------------|
A|---------------------------------------------------------------------------|
F|---/16--16-\14---\12--/14---\-12-\-14--------------------------------------|
C|---------------------------------------------------------------------------|
G|---/14--14--12---\10--/12---\-10-\-12--------------------------------------|
D|---------------------------------------------------------------------------|

GUitar 2, play this after playing riff 6 through once
d|---------------------------------------------------------------------------|
A|--------12---12------------------------------------------------------------|
F|--------12---12------------------------------------------------------------|
C|---12---12---12---------7----5---3---2-------------------------------------|
G|---10-------------------7----5---3---2-------------------------------------|
D|---10-------------------5----3---1---0-------------------------------------|

Bridge
x3 Guitar 1
d|---------------------------------------------------------------------------|
A|---------------------------------------------------------------------------|
F|---------------------------------------------------------------------------|
C|---------------------------------------------------------------------------|
G|---------------------------------------------------------------------------|
D|--/12\--1-0-0-4-0-0-7-0-0-10-0-0-8-0-7-0-----------------------------------|

Then play this
d|---------------------------------------------------------------------------|
A|---------------------------------------------------------------------------|
F|---------------------------------------------------------------------------|
C|---------------------------------------------------------------------------|
G|--------------------------------3------------------------------------------|
D|---1-0-0-4-0-0-7-0-0-10-0-0-8-0-1------------------------------------------|

Guitar 2, Listen for timing
X2, on third repeat sustain powerchords
d|---------------------------------------------------------------------------|
A|---------------------------------------------------------------------------|
F|---------------------------------------------------------------------------|
C|---------------------------------------------------------------------------|
G|--2--2----------2--2--2--2-------------------------------------------------|
D|--0--0----------0--0--0--0-------------------------------------------------|
Finish with

d|---------------------------------------------------------------------------|
A|---------------------------------------------------------------------------|
F|---------------------------------------------------------------------------|
C|---------------------------------------------------------------------------|
G|--2--2---------2-----------------------------------------------------------|
D|--0--0---------0-----------------------------------------------------------|




Solo backing

d|---------------------------------------------------------------------------|
A|---------------------------------------------------------------------------|
F|---------------------------------------------------------------------------|
C|--2-------------------------3------------------3-2------------2---2--------|
G|--2-------------------------3------------------3-2------------2---2--------|
D|--0-------------------------1------------------1-0------------0---0--------|


d|---------------------------0-----------------------------------------------|
A|---------------------------0-----------------------------------------------|
F|---------------------------------------------------------------------------|
C|--2--3-----3--3-------2---------3---------2--------------------------------|
G|--2--3-----3--3-------2---------3---------2---------6----------------------|
D|--0--1-----1--1-------0---------1---------0---------4----------------------|


Solo part 2 backing
d|---------------------------------------------------------------------------|
A|---------------------------------------------------------------------------|
F|---------------------------------------------------------------------------|
C|---------------------------------------------------------------------------|
G|--2-2-2-2-2-2-2-2-3-3-3-3-3-3-3-3-2-2-2-2-2-2-2-2-2-6-6-6-6-6-6-6-6--------|
D|--0-0-0-0-0-0-0-0-1-1-1-1-1-1-1-1-0-0-0-0-0-0-0-0-0-4-4-4-4-4-4-4-4--------|

d|---------------------------------------------------------------------------|
A|---------------------------------------------------------------------------|
F|---------------------------------------------------------------------------|
C|---------------------------------------------------------------------------|
G|--2-2-2-2-2-2-2-2-3-3-3-3-3-3-3-3-2-2-2-2-2-2-2-2-2-6----------------------|
D|--0-0-0-0-0-0-0-0-1-1-1-1-1-1-1-1-0-0-0-0-0-0-0-0-0-4----------------------|


W/ end lick of solo
d|---------------------------------------------------------------------------|
A|---------------------------------------------------------------------------|
F|---------------------------------------------------------------------------|
C|---------------------------------------------------------------------------|
G|---6---5---2---3-----------------------------------------------------------|
D|---4---3---0---1-----------------------------------------------------------|
     pm  pm  pm


Guitar solo 
d|-------------------------------------------------------------------------10|
A|--------9-9b------------9-10p9----10-12~----/10--12-13-12-10----10-12-13---|
F|---9h10------9-----9-10--------10----------------------------13------------|
C|---------------------------------------------------------------------------|
G|---------------------------------------------------------------------------|
D|---------------------------------------------------------------------------|


d|--16-13--12h13h12--11------------------------------------------------------|
A|----------------------13--12h13p12-10--12--10-9~---------------------------|
F|---------------------------------------------------------------------------|
C|---------------------------------------------------------------------------|
G|---------------------------------------------------------------------------|
D|---------------------------------------------------------------------------|


d|---t19p15p12-t19p15p12-t20p15p12-t20p15p12-t19p15p12--19-20-19~------------|
A|---------------------------------------------------------------------------|
F|---------------------------------------------------------------------------|
C|---------------------------------------------------------------------------|
G|---------------------------------------------------------------------------|
D|---------------------------------------------------------------------------|

d|--20b--20pb---19-20-19h20-17--17br-1517------------------------------------|
A|----------------------------------------18~--------------------------------|
F|---------------------------------------------------------------------------|
C|---------------------------------------------------------------------------|
G|---------------------------------------------------------------------------|
D|---------------------------------------------------------------------------|

Harmony (This may be slightly off)
d|--15b--15pb---14-15-14h15-12--12br-1012------------------------------------|
A|---------------------------------------------------------------------------|
F|----------------------------------------15~--------------------------------|
C|---------------------------------------------------------------------------|
G|---------------------------------------------------------------------------|
D|---------------------------------------------------------------------------|


Solo Part 2
Guitar 1
d|--7-0-0-8-0-0-10-0-0-12-0-0-10-0-8-0-7-0-0-8-0-0-10-0-0-13-0-12-0-10-0-----|
A|---------------------------------------------------------------------------|
F|---------------------------------------------------------------------------|
C|---------------------------------------------------------------------------|
G|---------------------------------------------------------------------------|
D|---------------------------------------------------------------------------|


d|--7-0-0-8-0-0-10-0-0-12-0-0-10-0-8-0-7-0-0-8-0-0-10-0-0-8-0-0-7-0-4~-------|
A|---------------------------------------------------------------------------|
F|---------------------------------------------------------------------------|
C|---------------------------------------------------------------------------|
G|---------------------------------------------------------------------------|
D|---------------------------------------------------------------------------|


Harmony 
d|--3-0-0-5-0-0-7-0-0-8-0-0-7-0-5-0-3-0-0-5-0-0-7-0-0-10-0-0-8-0-7-0---------|
A|---------------------------------------------------------------------------|
F|---------------------------------------------------------------------------|
C|---------------------------------------------------------------------------|
G|---------------------------------------------------------------------------|
D|---------------------------------------------------------------------------|


d|--3-0-0-5-0-0-7-0-0-8-0-0-7-0-5-0-3-0-0-5-0-0-7-0-0-10-0-0-3-0-1~----------|
A|---------------------------------------------------------------------------|
F|---------------------------------------------------------------------------|
C|---------------------------------------------------------------------------|
G|---------------------------------------------------------------------------|
D|---------------------------------------------------------------------------|

On second run through, end with this


d|--20b--20pb---19-20-19h20-17--17br-1517------------------------------------|
A|----------------------------------------18b~-------------------------------|
F|---------------------------------------------------------------------------|
C|---------------------------------------------------------------------------|
G|---------------------------------------------------------------------------|
D|---------------------------------------------------------------------------|

Harmony
d|--15b--15pb---14-15-14h15-12--12br-1012------------------------------------|
A|---------------------------------------------------------------------------|
F|----------------------------------------15~--------------------------------|
C|---------------------------------------------------------------------------|
G|---------------------------------------------------------------------------|
D|---------------------------------------------------------------------------|

Repeat chorus once through, then play riff 6 again

Then repeat the chorus again with this lick

d|---------------------------------------------------------------------------|
A|---------------------------------------------------------------------------|
F|---16--16-16-16-16-16-16-16-16-16\14-14-14-14-14-14-12-12-12-12-12-12-12-12|
C|---------------------------------------------------------------------------|
G|---14--14-14-14-14-14-14-14-14-14\12-12-12-12-12-12-10-10-10-10-10-10-10-10|
D|---------------------------------------------------------------------------|

d|---------------------------|
A|---------------------------|
F|-12-11/-12\-11/-12\-11/14~-|
C|---------------------------|
G|-10-9/--10\--9/-10\-9-/12--|
D|---------------------------|

Repeat riff 6 with this above
d|---------------------------------------------------------------------------|
A|---------------------------------------------------------------------------|
F|---9---/-11----11---/12--12--12/14-----------------------------------------|
C|---------------------------------------------------------------------------|
G|---7--/--9-----9----/10--10--10/12-----------------------------------------|
D|---------------------------------------------------------------------------|

Play riff 1, excluding harmony and finish with this

d|---------------------------------------------------------------------------|
A|---------------------------------------------------------------------------|
F|---------------------------------------------------------------------------|
C|---------------------------------------------------------------------------|
G|--2----2----2----2-------------------15-15-15------------------------------|
D|--0----0----0----0---000-0-0-000-0-0-13-13-13------------------------------|




| /  slide up
| \  slide down
| h  hammer-on
| p  pull-off
| ~  vibrato
| +  harmonic
| x  Mute note
| ph Pinch Harmonic
| pm Palm Mute
===============================================================================





Comments


Popular God Forbid tabs & chords
A Few Good Men Tabs
A Reflection Of The Past Tabs
Antihero Tabs
Antihero 2 Tabs
Chains Of Humanity Tabs
End Of The World 1 Tabs
End Of The World Intro Tabs
End Of The World Intro 1 Tabs
End Of The World Intro 3 Tabs
Lonely Dead Intro Tabs


Song lyrics



↑ Back to top | Tablatures and chords are parodies/interpretations of the original songs. You may use it for private study, scholarship, research or language learning purposes only
© 2014 AZChords.com Contact us | Privacy policy | DMCA | Add/correct tabs | Request tabs | Top 50 tabs