» » »

God Forbid, Go Your Own Way Bass tabs (ver.1)

Artists:  A B C D E F G H I J K L M N O P Q R S T U V W X Y Z # 

Go Your Own Way Bass tabs (ver.1)

God Forbid Tabs
 Rating:
4/5 (4 votes)
Go Your Own Way lessons Tabs too difficult? Try these video lessons and learn fast
1
                Band- God Forbid
Song- Go Your Own Way

Tuning: D G C F

Riff 1 (0:00)
F |---------------------------|
C |---------------------------|
G |--0h1------11--------------|
D |------0000----00-00-00-00--|

Fill 1 (0:15)
F |---------------|
C |---------------|
G |---------------|
D |--00-00-00-00--|

Riff 2 (0:17)
F |-----------------------------------|
C |-----------------------------------|
G |--0h1------11----------------------|
D |------0000----0000-0000-0000-0000--|

F |---------------------------|
C |---------------------------|
G |--0h1------11--------------|
D |------0000----00-00-00-00--|

Riff 3 (0:33)
F |--------------------|
C |--------------------|
G |----------------1~--|
D |--0~-00-0-00-3~-----|

Riff 4 (0:41)
F |--------------------------------------|
C |---------9-8--------------------------|
G |----7-10-----10-7-5---7-7-9-10-9-7-5--|
D |--0-----------------0-----------------|

Riff 5 (0:48) (v = vibrato)
F |--------------------------|
C |--------------------------|
G |--------7v----------7-6~--|
D |--0~-0~----3-5-7-0~-------|

Riff 3 (0:56)
Riff 4 (1:04)
Fill 1 (1:12)

Fill 2 (1:13)
F |-----------------------|
C |-----------------------|
G |-----------------------|
D |--0000-0000-0000-0000--|

Riff 2 (1:16)

Riff 6 (1:28)
F |------------------------|
C |------------------------|
G |------------------------|
D |--0~-3~-2~--0~-3~-2~-0--|

Riff 7 (1:52)
F |---------------------------------------------------|
C |---------------------------------------------------|
G |---------------------------------------------------|
D |--0000-000-0000-000/8888-8888-8888-8888-8888-8888--|

Riff 8 (2:01)
F |---------------------------|
C |---------------------------|
G |---------------------------|
D |--000-8-000-6-000-6-000-5--|x2

F |---------------------------|
C |---------------------------|
G |---------------------------|
D |--000-5-000-3-000-3-000-2--|x2

Riff 7 (2:11)
Riff 8 (2:21)

Riff 9 (2:32)
F |---------------------------------------|
C |---------------------------------------|
G |---------------------------------------|
D |--0000-000-0000-000/8~-8~-7~-5~-3~-0~--|

Riff 3 (3:00)
Riff 4 (3:08)
Fill 1 (3:16)

Riff 10 (3:18)
F |----------------------------------------|
C |----------------------------------------|
G |------------------------5-7-9-10-9-7-5--|
D |--0000-0000-0000-0000-0-----------------|

Riff 11 (3:28) (not perfect but close)
F |--5-4-2-5-4-2-4-2-------------------|
C |------------------5-4-2-------------|
G |------------------------5-3-2-------|
D |------------------------------5-00--|
            
Submit corrections

comments powered by Disqus
↑ Back to top | God Forbid Bass for Go Your Own Way. Lyrics for acoustic guitar and electric guitar. 1 Tablatures and chords are parodies/interpretations of the original songs. You may use it for private study, scholarship, research or language learning purposes only