» » »

God Forbid, Gone Forever Tabs (ver.1)

Artists:  A B C D E F G H I J K L M N O P Q R S T U V W X Y Z # 

Gone Forever Tabs (ver.1)

God Forbid Tabs
Rating:
4/5 (2 votes)
Gone Forever lessons Tabs too difficult? Try these video lessons and learn fast
                Band- God Forbid
Song- Gone Forever

Inrto/Post-Chorus
E|------------------------------------------------|------------|----||
B|------------------------------------------------|------------|----||
G|------------------------------------------------|------------|----||
D|------------------------------------------------|------------|----||
A|-3-2-0-0-7-0-0-6-0-3-2-0-2-3-2--3-2-0-0-7-0-0-6-|0-0-3-0-0-6-|----||
D|-3-2-0-0-7-0-0-6-0-3-2-0-2-3-2--3-2-0-0-7-0-0-6-|0-0-3-0-0-6-|000-||
       . .   . .   . . . . . . .      . .   . .    . .   . .    ...
E|---------||        
B|---------||
G|---------||
D|---------||
A|-3-----6-||
D|-3-000-6-||
     ...
Verse
E|------------------------------------------------------------------||
B|------------------------------------------------------------------||
G|------------------------------------------------------------------||
D|------------------------------------------------------------------||
A|-0-------5---6---8-------0-------5---6---4-------0-------5---6---8||
D|-0-0-000---0---0---0-000-0-0-000---0---0---0-000-0-0-000---0---0--||
     . ...   .   .   . ...   . ...   .   .   . ...   . ...   .   .   
(Harmonization)
E|-------------------------------------------------------------------||
B|-------------------------------------------------------------------||
G|-------------------------------------------------------------------||
D|-------------------------------------------------------------------||
A|-0-------8---9---11-------0-------8---9---7-------0-------8---9--11||
D|-0-0-000---0---0----0-000-0-0-000---0---0---0-000-0-0-000---0---0--||
     . ...   .   .    . ...   . ...   .   .   . ...   . ...   .   .

E|---------1-----------||
B|---------1-----------||
G|---------------------||
D|---------------------||
A|-----------0-0-0-0-3-||
D|-0-000-1---0-0-0-0-3-||
   . ...     . . . .
(Pre-Post Chorus)Fill(only happens before 2nd Pre-Chorus)
E|----1--------------||
B|------1------------||
G|--------2----------||
D|----------2--------||
A|-0-----------------||
D|-0-----------------||

Pre-Chorus(Gtr 1)
E|----------------------------------------------------------------||
B|----------------------------------------------------------------||
G|----------------------------------------------------------------||
D|-----------------3-------------------------------3--------------||
A|-----5---3h5---------7---5h7p5-------7---5h7---------7---5h7p5--||
D|-0-0---0-----0-0---0---0-------5~--0---0-----0-0---0---0--------||
     .   .     . .   .   .           .   .     . .   .   .  

E|------------------------------------------------||
B|------------------------------------------------||
G|------------------------------------------------||
D|------------------7---5---3h5p3-----------------||
A|------7---5h7-----------------------------------||
D|-3~-0---0-----0-0---0---0-------5-5-5-5-3-3-3-3-||
      .   .     . .   .   .  
(Gtr 2)
E|----------------------------------------------------------------||
B|----------------------------------------------------------------||
G|----------------------------------------------------------------||
D|-----------------7----------------------------------7-----------||
A|-----8---7h8---------10---8h10p8------10---8h10---------10---8h-||
D|-0-0---0-----0-0---0----0--------8~-0----0------0-0---0----0----||
   . .   .     . .   .    .           .    .      . .   .    .

E|--------------------------------------------------------||
B|--------------------------------------------------------||
G|--------------------------------------------------------||
D|-------------------------10---8---7h8p7-----------------||
A|-10p8------10---8h10------------------------------------||
D|------7~-0----0------0-0----0---0-------8-8-8-8-7-7-7-7-||
           .    .      . .    .   .  
Chorus(I could only figure out Doc's part)(just us these)
E|-----------||
B|-----------||
G|-----7---9-||
D|-----x---x-||
A|-----5---7-||
D|-0---------||

Bridge
E|-----------------------------------------||
B|-----------------------------------------||
G|-----------------------------------------||
D|-----------------------------------------||
A|-----------------------------------------||
D|-000000000000000044433311111111111111111-||
   .......................................
(harmonization)(Gtr 2)
E|-----------------------------------------||
B|-----------------------------------------||
G|-----------------------------------------||
D|-----------------------------------------||
A|-5555555555555555------------------------||
D|-----------------88877755555555555555555-||
   .......................................

E|------------||
B|------------||
G|------------||
D|------------||
A|-0---4-3--1-||
D|-0---4-3--1-||


E|-------------------------------------------||
B|-------------------------------------------||
G|-------------------------------------------||
D|-------------------------------------------||
A|-------0------0-------0----3---4---3-----1-||
D|-0000000-000000-0000000--0-3-0-4-0-3-0-0-1-||
   ......  .....  ......   .   .   .   . .
E|------------------------------------------||
B|------------------------------------------||
G|------------------------------------------||
D|------------------------------------------||
A|-------0------0-------0---3---4---3-----1-||
D|-0-0-0-0-000000-0000000-0-3-0-4-0-3-0-0-1-||
   . . .   .....  .....   .   .   .   . .
Sorry no solo this is all i got
            
Submit corrections

comments powered by Disqus
↑ Back to top | God Forbid Tabs for Gone Forever. Lyrics for acoustic guitar and electric guitar. Tablatures and chords are parodies/interpretations of the original songs. You may use it for private study, scholarship, research or language learning purposes only