» » »

Crucify Your Beliefs Tabs (ver.1)

Artists:  A B C D E F G H I J K L M N O P Q R S T U V W X Y Z # 

Crucify Your Beliefs Tabs (ver.1)

God Forbid
Rating:
3/5 (1 vote)

Hard to play? Try these video lessons and learn fast.
                (Intro)

Tunning: EADGBE
Thats For Both Guitars

If There's Any Mistakes Then Comment On This Tab And Let Me Know Thanks
Anyhow Enjoy, And I Hope This Tab Is Usefull For You, Good Luck!

Guitar 1:
E|-------------------------------------------------------------------|
B|-3----3----3/8---7----7----7/4---3----3----1---1/3----3----3-------|
G|-------------------------------------------------------------------|
D|---00---00-----0---00---00-----0---00---00---0-----00---00---0-----|  x3
A|-------------------------------------------------------------------|
E|-------------------------------------------------------------------|

Guitar 2:
E|-------------------------------------------------------------------|
B|-7----7----7/11---10----10----8---7----7----5---5/7----7----7------|
G|-------------------------------------------------------------------|
D|---00---00------0----00----00---0---00---00---0-----00---00---0----|
A|-------------------------------------------------------------------|
E|-------------------------------------------------------------------|

Part 2:

Guitar 1:
E|-------------------------------------------------------------------|
B|-3----3----3/8---7----7----7/11---10----10----8/7----7----7--------|
G|-------------------------------------------------------------------|
D|---00---00-----0---00---00------0----00----00-----00---00---0------|
A|-------------------------------------------------------------------|
E|-------------------------------------------------------------------|

Guitar 2:
E|-----------------------------------------------------------------------|
B|-7----7----7/11---10----10----10/15---14---14----11/10----10----10-----|
G|-----------------------------------------------------------------------|
D|---00---00------0----00----00-------0----00---00-------00----00----0---|
A|-----------------------------------------------------------------------|
E|-----------------------------------------------------------------------|

Part 3 (Part 1 Once, Then Part 2 Again)

Guitar 1:
E|------------------------------------------------------------------|
B|-3----3----3/8---7----7----7/4---3----3----1---1/3----3----3------|
G|------------------------------------------------------------------|
D|---00---00-----0---00---00-----0---00---00---0-----00---00---0----|   x3
A|------------------------------------------------------------------|
E|------------------------------------------------------------------|

Guitar 2:
E|------------------------------------------------------------------|
B|-7----7----7/11---10----10----8---7----7----5---5/7----7----7-----|
G|------------------------------------------------------------------|
D|---00---00------0----00----00---0---00---00---0-----00---00---0---|
A|------------------------------------------------------------------|      
E|------------------------------------------------------------------|

Guitar 1:
E|------------------------------------------------------------------|
B|-3----3----3/8---7----7----7/11---10----10----8/7----7----7-------|
G|------------------------------------------------------------------|
D|---00---00-----0---00---00------0----00----00-----00---00---0-----|
A|------------------------------------------------------------------|
E|------------------------------------------------------------------|

Guitar 2:
E|-----------------------------------------------------------------------|
B|-7----7----7/11---10----10----10/15---14---14----11/10----10----10-----|
G|-----------------------------------------------------------------------|
D|---00---00------0----00----00-------0----00---00-------00----00----0---|
A|-----------------------------------------------------------------------|
E|-----------------------------------------------------------------------|

 /  slide up, n slide down
 h  hammer-on
 p  pull-off
 ~  vibrato
 +  harmonic
 x Mute Note
            
Hard to play? Try these video lessons and learn fast. | Correct




comments powered by Disqus
↑ Back to top | Tablatures and chords are parodies/interpretations of the original songs. You may use it for private study, scholarship, research or language learning purposes only